Sound will begin in 5 seconds

Miel San Marcos Viene Ya

01234567891011121314151617181920212223
E
B
G
D
A
E
B
0 1 2 3 4 5 6 7 8 9 10 11 12 13 14 15 16 17 18 19 20 21 22 23
Song Science #1: How Pros Use 6 Chords to Write Hit Songs
(/) Slide Up  (\) Slide Down  (h) Hammer On  (p) Pull Off  (b) Bend (r) Release (v) Vibrato

Stave 1:

G|--------------------------------------------------
D|--------------------------------2-----------------
A|--------3-----------0-----3--3-----3--5--5--3--2--
E|--5--5-----5--1--1-----1--------------------------
B|--------------------------------------------------

Stave 2:

G|---------------------
D|---------------------
A|---------------------
E|--5--1--8--3--5--17--
B|---------------------

Stave 3:

G|-----------------------------
D|-----------------------------
A|-----------------------3-----
E|--1--8--3--5-----3--5-----5--
B|-----------------------------

Stave 4:

G|------------------------------------
D|------------7--5-----5--------------
A|------------------7-----7--5--------
E|--1--8--15--------------------7--5--
B|------------------------------------

Stave 5:

G|--------------------------------------------------
D|--------------------------------2--------5-----5--
A|--------3-----------0-----3--3-----3--------------
E|--5--5-----5--1--1-----1--------------3-----3-----
B|--------------------------------------------------

Stave 6:

G|--------------------------
D|--------------------5-----
A|--------------7--5-----7--
E|--5--0--8--7--------------
B|--------------------------

Stave 7:

G|-------------------------5--------------------
D|----------------------------------------------
A|------------17-----3--3-----------------3-----
E|--1--8--10------------------3--5--3--5-----5--
B|----------------------------------------------

Stave 8:

G|-----------7--5-----9--7--5--7--5---------------------
D|--7--5-----------7-----------------7------------------
A|--------7-----------------------------3--5--3--5--12--
E|------------------------------------------------------
B|------------------------------------------------------

http://www.guitartabcreator.com
Guitar Tab Creator is intended to store guitar tab created through the tool. It currently does not support in-line text editing. Any text you place in here will be lost. If you need to comment on your tab, please use the "Tab Notes" section located below.