Sound will begin in 5 seconds

Miel San Marcos Unidos

01234567891011121314151617181920212223
E
B
G
D
A
E
B
0 1 2 3 4 5 6 7 8 9 10 11 12 13 14 15 16 17 18 19 20 21 22 23
Song Science #1: How Pros Use 6 Chords to Write Hit Songs
(/) Slide Up  (\) Slide Down  (h) Hammer On  (p) Pull Off  (b) Bend (r) Release (v) Vibrato

Stave 1:

G|--------------------------------------
D|--------------------------------------
A|-----5-----5--5--5-----5--------5--7--
E|--7-----5-----------5-----5--3--------
B|--------------------------------------

Stave 2:

G|-----------------
D|-----------------
A|--------3--4--5--
E|--3--5-----------
B|-----------------

Stave 3:

G|--------------------------------------
D|-----------4--------------------------
A|--5--5--7-----5-----------------------
E|-----------------3--5--7--5--3--2--5--
B|--------------------------------------

Stave 4:

G|--------------
D|--------------
A|--------------
E|--3--5--7--5--
B|--------------

Stave 5:

G|-----------------------------
D|-----------------------------
A|--------5-----5--------------
E|--7--------5--------3-----5--
B|-----------------------------

Stave 6:

G|--------------------------
D|--------------------------
A|--------5-----5--------7--
E|--7--------5-----3--------
B|--------------------------

Stave 7:

G|--------
D|--------
A|--------
E|--3--5--
B|--------

Stave 8:

G|--------------------------
D|-----7-----5-----4--------
A|-----------------------5--
E|--------------------------
B|--------------------------

Stave 9:

G|-----------------------------------
D|-----------------------------------
A|-----------------------------------
E|--7--5--3--2--5--7--9--12--15--17--
B|-----------------------------------

Stave 10:

G|------------------------------------------
D|------------------------------------------
A|--------------------------16--19----------
E|--19--17--15--14--17--19----------15--17--
B|------------------------------------------

Stave 11:

G|-----------
D|-----------
A|-----------
E|--3--2--5--
B|-----------

http://www.guitartabcreator.com
Guitar Tab Creator is intended to store guitar tab created through the tool. It currently does not support in-line text editing. Any text you place in here will be lost. If you need to comment on your tab, please use the "Tab Notes" section located below.