Sound will begin in 5 seconds

Miel San Marcos Rey Vencedor

01234567891011121314151617181920212223
E
B
G
D
A
E
B
0 1 2 3 4 5 6 7 8 9 10 11 12 13 14 15 16 17 18 19 20 21 22 23
Song Science #1: How Pros Use 6 Chords to Write Hit Songs
(/) Slide Up  (\) Slide Down  (h) Hammer On  (p) Pull Off  (b) Bend (r) Release (v) Vibrato

Stave 1:

G|--------------------------------
D|--------------------------------
A|-----------3--------------------
E|--1--3--5-----1--3-----5--5--0--
B|--------------------------------

Stave 2:

G|-----------------
D|-----------------
A|-----------------
E|--1--3--5--7--8--
B|-----------------

Stave 3:

G|--------------------------
D|--------------------------
A|--------------------2--3--
E|-----1--3--5--3--5--------
B|--------------------------

Stave 4:

G|-----------------------
D|-----------------------
A|-----------------3-----
E|--1--3--5-----1-----3--
B|-----------------------

Stave 5:

G|--------------
D|--------------
A|--------------
E|--1--3--5--0--
B|--------------

Stave 6:

G|-----------
D|-----------
A|--3--2--3--
E|-----------
B|-----------

Stave 7:

G|--------------------------------
D|--------------------------------
A|--------2--3-----3--5-----8--7--
E|--5-----------------------------
B|--------------------------------

Stave 8:

G|-----------------------------
D|-----------------------------
A|--8--8--8--8--7--5--7--5-----
E|--------------------------8--
B|-----------------------------

Stave 9:

G|--------------------------------------
D|----------------10--------------------
A|--8--10--12--8------10--8--10--12--7--
E|--------------------------------------
B|--------------------------------------

Stave 10:

G|-----------------------------------------
D|-----------------------------------------
A|--------------------3-----------5--5--5--
E|--5--5--5-----5--5-----5--3--5-----------
B|-----------------------------------------

Stave 11:

G|--------------------
D|--------------------
A|--5-----------------
E|-----6--5--4--4--4--
B|--------------------

Stave 12:

G|--------------------------
D|--------------------------
A|-----------5--7-----------
E|--4--6--7--------3--0--3--
B|--------------------------

http://www.guitartabcreator.com
Guitar Tab Creator is intended to store guitar tab created through the tool. It currently does not support in-line text editing. Any text you place in here will be lost. If you need to comment on your tab, please use the "Tab Notes" section located below.