Sound will begin in 5 seconds

Miel San Marcos Regocijate Moradora De Sion

01234567891011121314151617181920212223
E
B
G
D
A
E
B
0 1 2 3 4 5 6 7 8 9 10 11 12 13 14 15 16 17 18 19 20 21 22 23
Song Science #1: How Pros Use 6 Chords to Write Hit Songs
(/) Slide Up  (\) Slide Down  (h) Hammer On  (p) Pull Off  (b) Bend (r) Release (v) Vibrato

Stave 1:

G|---------------------------
D|---------------------------
A|--3--3--5--5--7--7--9--10--
E|---------------------------
B|---------------------------

Stave 2:

G|--------------------------4--7--
D|--------------------5-----------
A|--3--3--5--5--7--7-----7--------
E|--------------------------------
B|--------------------------------

Stave 3:

G|-----------------------------------
D|-----------------------5--4--------
A|--7--2--3--5--7--2--3--------5--7--
E|-----------------------------------
B|-----------------------------------

Stave 4:

G|--------------------------------------
D|-----------------------------4--------
A|--5--5--5--3-----1--3-----2-----5--2--
E|--------------3--------3--------------
B|--------------------------------------

Stave 5:

G|-----------------------------------------------------
D|--------2-----------------------------------4--------
A|-----2-----2--5-----5-----3-----1--3-----2-----5--2--
E|--0--------------5-----5-----3--------3--------------
B|-----------------------------------------------------

Stave 6:

G|--------------------------------------------------------
D|--------2-----------------------------------4-----------
A|-----2-----2--5-----5-----3-----1--3-----2-----5-----5--
E|--0--------------5-----5-----3--------3-----------5-----
B|--------------------------------------------------------

Stave 7:

G|--------------------------------------------------------------
D|--------2-----------------------------------------------------
A|-----2-----2--5-----5-----3-----1--3-----2--3--0--2-----------
E|--0--------------5-----5-----3--------3--------------3--2--0--
B|--------------------------------------------------------------

Stave 8:

G|--
D|--
A|--
E|--
B|--

Stave 9:

G|-----------------
D|-----------------
A|--2-----------5--
E|-----5--3--2-----
B|-----------------

Stave 10:

G|-----------------------------------------------------------------
D|-----------------------------------------------------------------
A|--3-----1--3-----5-----3--5-----3-----1--3-----5-----3--5--3--2--
E|-----3--------3-----5--------5-----3--------3-----5--------------
B|-----------------------------------------------------------------

Stave 11:

G|-----------------------------------------
D|-----------------------------------------
A|--3-----1--3-----5-----3--5-----------2--
E|-----3--------3-----5--------5--5--2-----
B|-----------------------------------------

Stave 12:

G|-----------------------------------------------------
D|--------2-----------------------------------4--------
A|-----2-----2--5-----5-----3-----1--3-----2-----5--2--
E|--0--------------5-----5-----3--------3--------------
B|-----------------------------------------------------

Stave 13:

G|--------------------------------------
D|-----------------------------7--------
A|-----------6-----4--6-----5-----8--5--
E|--1--1--1-----6--------6--------------
B|--------------------------------------

Stave 14:

G|--------------------------------------------
D|--------5-----------------------------------
A|-----5-----5--8-----8-----6-----4--6-----5--
E|--3--------------8-----8-----6--------6-----
B|--------------------------------------------

Stave 15:

G|--7-----5--------------------
D|-----7-----7--5--3-----------
A|--------------------5--3--6--
E|-----------------------------
B|-----------------------------

Stave 16:

G|-----------------------------
D|-----------------------------
A|-----------------------1--3--
E|--1--3--3--1-----1--3--------
B|--------------4--------------

Stave 17:

G|------------------------------------
D|---------------8--10----------------
A|--6--8--8--10---------6--8--10--13--
E|------------------------------------
B|------------------------------------

Stave 18:

G|--------------------------------
D|--------------------------------
A|--6-----------------------1--3--
E|-----1--3--3--1-----1--3--------
B|-----------------4--------------

Stave 19:

G|--------------------------------------------------------
D|--------------------------------------5-----------5-----
A|--6-----4--6-----8-----6--8--------5-----5-----5-----5--
E|-----6--------6-----8--------8--3-----------3-----------
B|--------------------------------------------------------

Stave 20:

G|------------------------------------------------------------
D|---------------------------------------8--10----------------
A|--6-----4--6-----8-----6--8-----8--10---------6--8--10--13--
E|-----6--------6-----8--------8------------------------------
B|------------------------------------------------------------

Stave 21:

G|-----------
D|-----------
A|--6--8--5--
E|-----------
B|-----------

Stave 22:

G|------------------------------------------------------
D|--------2-----------------------7---------------------
A|-----2-----2--5-----5--------7-----7--2--5--7--9--10--
E|--0--------------5-----5--5---------------------------
B|------------------------------------------------------

http://www.guitartabcreator.com
Guitar Tab Creator is intended to store guitar tab created through the tool. It currently does not support in-line text editing. Any text you place in here will be lost. If you need to comment on your tab, please use the "Tab Notes" section located below.