Sound will begin in 5 seconds

Miel San Marcos Levantate Senor

01234567891011121314151617181920212223
E
B
G
D
A
E
B
0 1 2 3 4 5 6 7 8 9 10 11 12 13 14 15 16 17 18 19 20 21 22 23
Song Science #1: How Pros Use 6 Chords to Write Hit Songs
(/) Slide Up  (\) Slide Down  (h) Hammer On  (p) Pull Off  (b) Bend (r) Release (v) Vibrato

Stave 1:

G|--------------
D|--------------
A|--------3-----
E|--5--1-----3--
B|--------------

Stave 2:

G|------
D|------
A|------
E|--12--
B|------

Stave 3:

G|-----------------------------------------------------
D|--------------3-----------------------------7--5--7--
A|-----------3-----3--3--------------5-----7-----------
E|--5--3--1--------------3-----3--3--------------------
B|--------------------------1-----------5--------------

Stave 4:

G|--------------------------------------------
D|-----------------5--------------------5--7--
A|--------------3-----3--------5-----7--------
E|--5--3--1--1-----------5--3-----------------
B|--------------------------------5-----------

Stave 5:

G|-----------------------------------------------------------------
D|-----------------------------------------7--7--5-----5-----------
A|--------------3-----1--3--0-----------7-----------7-----7--5-----
E|--5--3--1--1-----3-----------3--------------------------------5--
B|--------------------------------3--5-----------------------------

Stave 6:

G|-----------------------------------------------------------------
D|--------3-----------------------------5--7--7--5-----5-----------
A|-----3-----3--3--------------5-----7--------------7-----7--5-----
E|--1--------------3-----3--3-----------------------------------5--
B|--------------------1-----------5--------------------------------

Stave 7:

G|-----------------------------------------------
D|--------3-----------------------2--------------
A|-----3-----3--3-----3-----3--2-----3--2--------
E|--1--------------3-----3-----------------5--3--
B|-----------------------------------------------

Stave 8:

G|--------------------------------------------------5--5-----
D|--------3-----------------------------------5--7--------7--
A|-----3-----3--3--------------5-----------7-----------------
E|--1--------------3-----3--3--------3--5--------------------
B|--------------------1-----------5--------------------------

Stave 9:

G|-----------------------------------------
D|--------3--------------------2--2--------
A|-----3-----3--3--------------------------
E|--1--------------3--------0--------5--3--
B|--------------------1--3-----------------

Stave 10:

G|--------------------------------------------------------
D|--------3-----------------------------------------------
A|-----3-----3--3--------------5--------------------3--2--
E|--1--------------3-----3--3--------3--5--5-----3--------
B|--------------------1-----------5-----------5-----------

Stave 11:

G|-----------------------------------------------------------------
D|--------3--------------------------------7--7--5-----5-----------
A|-----3--------1--3--------------5-----7-----------7-----7--5-----
E|--1--------3--------3-----3--3--------------------------------5--
B|-----------------------1-----------5-----------------------------

Stave 12:

G|-----------------------------------------------------------
D|--------------3--------------------------------------------
A|-----------3-----3--3--------------5--------------3--2-----
E|--5--3--1--------------3-----3--3--------3--5--5--------3--
B|--------------------------1-----------5--------------------

Stave 13:

G|-----------------------------------------
D|--------3--------------------2--2--------
A|-----3-----3--3--------------------3--3--
E|--1--------------3--------0--------------
B|--------------------1--3-----------------

Stave 14:

G|--------------------------------------------------
D|--------3-----------------------------------7--5--
A|-----3-----3--3--------------5-----------7--------
E|--1--------------3-----3--3--------3--5-----------
B|--------------------1-----------5-----------------

Stave 15:

G|-----------------------------------------------------------
D|--------3--------------------------------------------------
A|-----3-----3--3--------------5--------------------3--------
E|--1--------------3-----3--3--------3--5--5-----3-----3--5--
B|--------------------1-----------5-----------5--------------

Stave 16:

G|-----------------------
D|-----------------------
A|-----------------3--3--
E|--5--5--0--3--5--------
B|-----------------------

Stave 17:

G|--------------------------------
D|--------------------------2--5--
A|--------------------3--5--------
E|--3--5--5--0--3--5--------------
B|--------------------------------

Stave 18:

G|-----------------------------5--7--
D|--------------------5--7--5--------
A|-----------------------------------
E|--3--5--5--0--3--5-----------------
B|-----------------------------------

Stave 19:

G|--------------------------------
D|--------------------------------
A|--------------------3--3--2--2--
E|--3--5--5--0--3--5--------------
B|--------------------------------

Stave 20:

G|-----------------------
D|-----------7--7--5-----
A|-----7--7-----------7--
E|--5--------------------
B|-----------------------

Stave 21:

G|-----------------------
D|-----------------------
A|-----7--3--5--3--------
E|--5--------------5--3--
B|-----------------------

Stave 22:

G|--------------------
D|--------------------
A|-----------5--3-----
E|--5--3--1--------5--
B|--------------------

http://www.guitartabcreator.com
Guitar Tab Creator is intended to store guitar tab created through the tool. It currently does not support in-line text editing. Any text you place in here will be lost. If you need to comment on your tab, please use the "Tab Notes" section located below.