Sound will begin in 5 seconds

Miel San Marcos Fiesta

01234567891011121314151617181920212223
E
B
G
D
A
E
B
0 1 2 3 4 5 6 7 8 9 10 11 12 13 14 15 16 17 18 19 20 21 22 23
Song Science #1: How Pros Use 6 Chords to Write Hit Songs
(/) Slide Up  (\) Slide Down  (h) Hammer On  (p) Pull Off  (b) Bend (r) Release (v) Vibrato

Stave 1:

G|--------
D|--------
A|--3-----
E|-----3--
B|--------

Stave 2:

G|--------------------------
D|--------3-----------------
A|-----3-----3-----3-----3--
E|--1-----------1-----1-----
B|--------------------------

Stave 3:

G|--------------------------
D|--------8-----------------
A|-----8-----8-----8-----8--
E|--6-----------6-----6-----
B|--------------------------

Stave 4:

G|--------------------------
D|--------------------------
A|--------------------------
E|--3--4--3--4--3--4--6-----
B|--------------------------

Stave 5:

G|-----------------------------------
D|-----------------------------------
A|--3-----1--3--3--3-----1-----1--3--
E|-----3--------------3-----3--------
B|-----------------------------------

Stave 6:

G|-----------------------------------------
D|-----3-----1--3--------3-----1-----1--3--
A|--------3-----------------3-----3--------
E|--1--------------1--1--------------------
B|-----------------------------------------

Stave 7:

G|-----3--3--------------------------------------------------------
D|-----------3--------------3-----3--5--5--3--------------3--3--5--
A|--1-----------1--1--3--5-----5--------------5--------5-----------
E|-----------------------------------------------3--3--------------
B|-----------------------------------------------------------------

Stave 8:

G|--------------------------------
D|--------------------------1-----
A|--3-----1--3--3--3--3--1-----3--
E|-----3--------------------------
B|--------------------------------

Stave 9:

G|-----------------------------------
D|-----------5--6--5--3--5-----------
A|--1--3--5--------------------------
E|--------------------------3--1--3--
B|-----------------------------------

Stave 10:

G|-----------------------
D|-----------------------
A|-----------8--6--5-----
E|-----4--3-----------3--
B|-----------------------

Stave 11:

G|--------------------------------
D|-----3--1--3--------3--------3--
A|--------------------------------
E|--1-----------1--1-----1--1-----
B|--------------------------------

Stave 12:

G|--------------------------------
D|--------------------------------
A|--------------6--8-----6--6-----
E|-----8--8--8--------8--------8--
B|--------------------------------

Stave 13:

G|------------------------------------------
D|-----10--8-----8--7-----------------------
A|---------------------6--6--8-----6--6-----
E|--8---------6-----------------8--------8--
B|------------------------------------------

Stave 14:

G|------------------
D|-----------8--10--
A|-----6--8---------
E|--8---------------
B|------------------

Stave 15:

G|--------------------------
D|-----------1--1--1--------
A|--3--3--------------1-----
E|--------3--------------1--
B|--------------------------

Stave 16:

G|--------------------------
D|-----------3--3--3--1-----
A|--3--3-----------------3--
E|--------3-----------------
B|--------------------------

Stave 17:

G|--------------3--0--5--3--7--5--
D|--3--1--5--3--------------------
A|--------------------------------
E|--------------------------------
B|--------------------------------

Stave 18:

G|--------------------------
D|--------------------------
A|--3--------------0--1--2--
E|-----0--1--2--3-----------
B|--------------------------

Stave 19:

G|--------------2--3--4--5--4--3--2--------------
D|--2--3--4--5-----------------------5--4--3--2--
A|-----------------------------------------------
E|-----------------------------------------------
B|-----------------------------------------------

Stave 20:

G|----------------------
D|--15--13--------------
A|----------15--13--15--
E|----------------------
B|----------------------

Stave 21:

G|--0--2--3--3--2-----------
D|-----------------1--3--5--
A|--------------------------
E|--------------------------
B|--------------------------

Stave 22:

G|------------------------------
D|------------------------------
A|--------------12--13--14--15--
E|--0--1--2--3------------------
B|------------------------------

Stave 23:

G|------------------------------
D|--15--13--------------13------
A|----------15--13--15------15--
E|------------------------------
B|------------------------------

Stave 24:

G|-----
D|-----
A|-----
E|--8--
B|-----

Stave 25:

G|--------------
D|--------------
A|--------------
E|--------3--2--
B|--1--3--------

Stave 26:

G|------17------16--
D|--17------17------
A|------------------
E|------------------
B|------------------

Stave 27:

G|--------------------
D|--------------------
A|--------------------
E|--3--4--3--4--3--3--
B|--------------------

http://www.guitartabcreator.com
Guitar Tab Creator is intended to store guitar tab created through the tool. It currently does not support in-line text editing. Any text you place in here will be lost. If you need to comment on your tab, please use the "Tab Notes" section located below.