Sound will begin in 5 seconds

Miel San Marcos Eres Dios

01234567891011121314151617181920212223
E
B
G
D
A
E
B
0 1 2 3 4 5 6 7 8 9 10 11 12 13 14 15 16 17 18 19 20 21 22 23
Song Science #1: How Pros Use 6 Chords to Write Hit Songs
(/) Slide Up  (\) Slide Down  (h) Hammer On  (p) Pull Off  (b) Bend (r) Release (v) Vibrato

Stave 1:

G|--------------------
D|--------------------
A|-----------4--5--7--
E|--3--7--5-----------
B|--------------------

Stave 2:

G|-----------------------------
D|-----------------------------
A|--5--------------------3--5--
E|-----5--7--3-----3--5--------
B|-----------------------------

Stave 3:

G|-----------------------------
D|-----------------------------
A|--5--------------------------
E|-----5--7--3-----5--3--5--3--
B|-----------------------------

Stave 4:

G|-----------------------------
D|-----------------------------
A|--------------------3--4--5--
E|--7--3--5-----3--5-----------
B|-----------------------------

Stave 5:

G|-----------------------------------
D|-----------------------------------
A|--5--------------------------------
E|-----5--7--3-----5--3--5--3--1--3--
B|-----------------------------------

Stave 6:

G|----------------------------------------
D|----------------------------12--11------
A|--------5--------5--12--14----------12--
E|--3--5-----5--7-------------------------
B|----------------------------------------

Stave 7:

G|--------------------------------------
D|--------------------------------------
A|-----------------------5-----5--------
E|--7--2--7--3--0--3--5-----5-----5--7--
B|--------------------------------------

Stave 8:

G|-------------------------------------------------------
D|-------------------------------------------------------
A|--5----------------------------------------------------
E|-----5--3--15--7--5--3--15--2--5--7--9--3--5--7--5--3--
B|-------------------------------------------------------

Stave 9:

G|-----------------
D|-----------------
A|--------3--5--7--
E|--3--5-----------
B|-----------------

Stave 10:

G|--------------------------------------
D|-----5--------9--------7--------4-----
A|--------------------------------------
E|--3-----3--7-----7--5-----5--2-----2--
B|--------------------------------------

Stave 11:

G|--------------
D|--------------
A|--------------
E|--3--7--5--2--
B|--------------

Stave 12:

G|-----------------------------------
D|-----------------------------------
A|-----------------------------------
E|--3--7--9--10--12--12--12--14--12--
B|-----------------------------------

http://www.guitartabcreator.com
Guitar Tab Creator is intended to store guitar tab created through the tool. It currently does not support in-line text editing. Any text you place in here will be lost. If you need to comment on your tab, please use the "Tab Notes" section located below.