Sound will begin in 5 seconds

Miel San Marcos El Santo De Israel

01234567891011121314151617181920212223
E
B
G
D
A
E
B
0 1 2 3 4 5 6 7 8 9 10 11 12 13 14 15 16 17 18 19 20 21 22 23
Song Science #1: How Pros Use 6 Chords to Write Hit Songs
(/) Slide Up  (\) Slide Down  (h) Hammer On  (p) Pull Off  (b) Bend (r) Release (v) Vibrato

Stave 1:

G|-----------------------------
D|-----------------------------
A|-----------------------------
E|--3--4--5--5--0--3--5--5--5--
B|-----------------------------

Stave 2:

G|-----------------------------
D|-----------------------------
A|--3--2-----------------------
E|--------5--5--0--3--5--5--5--
B|-----------------------------

Stave 3:

G|--------------------------------
D|--------------------------------
A|--3--2--------------------------
E|--------5--5--5--5--5--3--4--5--
B|--------------------------------

Stave 4:

G|--------------------------------------
D|--------3-----------------------------
A|-----3-----3--3-----3-----7-----7-----
E|--1--------------3-----3-----7-----7--
B|--------------------------------------

Stave 5:

G|--------------------------------------
D|--------7-----------3-----------------
A|-----7-----7-----3-----3--3-----3-----
E|--5-----------1--------------3-----3--
B|--------------------------------------

Stave 6:

G|-----------------------------
D|-----------------------------
A|--7-----7--8--7--------------
E|-----7-----------9--8--7--5--
B|-----------------------------

Stave 7:

G|--------------------------------------------------
D|--------7-----------3-----------------------------
A|-----7-----7-----3-----3--3-----3-----7-----7-----
E|--5-----------1--------------3-----3-----7-----7--
B|--------------------------------------------------

Stave 8:

G|-----------------------------------------------------------
D|--------7-----------3--------------------------------------
A|-----7-----7-----3-----3--3-----3-----7--7--7--7-----------
E|--5-----------1--------------3-----3--------------3--4--5--
B|-----------------------------------------------------------

Stave 9:

G|--------------------
D|--------------------
A|-----3--7--------3--
E|--1--------5--1-----
B|--------------------

Stave 10:

G|-----------------------------
D|---------7--10--9--7---------
A|--7--10---------------10-----
E|--------------------------5--
B|-----------------------------

Stave 11:

G|-----------------------------------
D|-----------------------------------
A|-----------------------3-----3--3--
E|--0--3--5--1--0--1--1-----3--------
B|-----------------------------------

Stave 12:

G|-----------------------
D|-----------------------
A|--6--7-----6--7--------
E|--------5--------8--5--
B|-----------------------

Stave 13:

G|-----------------------------------------
D|-----------------------------------------
A|--------------------------3-----3--3--7--
E|--5--0--3--5--1--0--1--1-----3-----------
B|-----------------------------------------

Stave 14:

G|-----------------------
D|-----------------------
A|-----------5--3--------
E|--5--3--1--------3--5--
B|-----------------------

Stave 15:

G|------------------------
D|------------------------
A|--7--10-----5--3--------
E|---------5--------3--5--
B|------------------------

Stave 16:

G|---------7---------------------
D|-----10-----9--10--7--9--5-----
A|--7----------------------------
E|-------------------------------
B|-------------------------------

Stave 17:

G|--------------------
D|--------------------
A|--7--7-----7--7--7--
E|--------7-----------
B|--------------------

Stave 18:

G|--------------------------------
D|--------------------------------
A|--------------------------------
E|--5--5--0--3--5--1--1--0--1--1--
B|--------------------------------

Stave 19:

G|--------------------------------
D|--------------------------------
A|--3--3-----3--3--7--7-----7--7--
E|--------3--------------7--------
B|--------------------------------

Stave 20:

G|--------------------------------------------------
D|--------------------------------------------------
A|--------------------------------------------------
E|--5--5--5--0--5--5--5--0--1--1--1--0--1--1--1--0--
B|--------------------------------------------------

Stave 21:

G|--------------------------------
D|--------------------------------
A|--3--3--3-----3--3--3-----7--7--
E|-----------3-----------3--------
B|--------------------------------

http://www.guitartabcreator.com
Guitar Tab Creator is intended to store guitar tab created through the tool. It currently does not support in-line text editing. Any text you place in here will be lost. If you need to comment on your tab, please use the "Tab Notes" section located below.