Sound will begin in 5 seconds

Miel San Marcos Avivanos

01234567891011121314151617181920212223
E
B
G
D
A
E
B
0 1 2 3 4 5 6 7 8 9 10 11 12 13 14 15 16 17 18 19 20 21 22 23
Song Science #1: How Pros Use 6 Chords to Write Hit Songs
(/) Slide Up  (\) Slide Down  (h) Hammer On  (p) Pull Off  (b) Bend (r) Release (v) Vibrato

Stave 1:

G|--------------------
D|--------------------
A|--5-----------------
E|-----5--3--0--1--3--
B|--------------------

Stave 2:

G|-----------------------------
D|-----------------------------
A|--5--------------------3--5--
E|-----5--3--0--1--3--5--------
B|-----------------------------

Stave 3:

G|-----------------
D|-----------------
A|--2--3--5--------
E|-----------3--5--
B|-----------------

Stave 4:

G|--------------
D|--------------
A|--2--3--5-----
E|-----------3--
B|--------------

Stave 5:

G|--7--5-----7-----
D|--------7--------
A|--------------0--
E|-----------------
B|-----------------

Stave 6:

G|---------------------------
D|--7------------------------
A|-----7-----10--7-----7--8--
E|--------8---------8--------
B|---------------------------

Stave 7:

G|-----------
D|-----------
A|-----------
E|--0--1--3--
B|-----------

Stave 8:

G|--
D|--
A|--
E|--
B|--

http://www.guitartabcreator.com
Guitar Tab Creator is intended to store guitar tab created through the tool. It currently does not support in-line text editing. Any text you place in here will be lost. If you need to comment on your tab, please use the "Tab Notes" section located below.