Sound will begin in 5 seconds

Miel San Marcos Alegria

01234567891011121314151617181920212223
E
B
G
D
A
E
B
0 1 2 3 4 5 6 7 8 9 10 11 12 13 14 15 16 17 18 19 20 21 22 23
Song Science #1: How Pros Use 6 Chords to Write Hit Songs
(/) Slide Up  (\) Slide Down  (h) Hammer On  (p) Pull Off  (b) Bend (r) Release (v) Vibrato

Stave 1:

G|--------------------------------------------------------------------------------
D|-----------------------------------------------------------------------8--------
A|--3--3-----1--3-----------------------3--6--6-----6--8--8--------6--8-----8--6--
E|--------3--------3--4--4--4--6--4--6-----------6-----------6--6-----------------
B|--------------------------------------------------------------------------------

Stave 2:

G|-----------------------------------------------------------------3-----------3--5--
D|--------------------------------------------------------3--1--------5--3--5--------
A|--3--3-----1--3-----------------------3--6--1--3--1-----------3--------------------
E|--------3--------3--4--4--4--6--4--6-----------------3-----------------------------
B|-----------------------------------------------------------------------------------

Stave 3:

G|--------------------------------------------------------
D|-----------------------5--3-----------------------------
A|-----1-----1--3--------------3--------1-----1--3--------
E|--3-----3-----------3--------------3-----3-----------1--
B|--------------------------------------------------------

Stave 4:

G|-----------------------------------------------------------------
D|--------------------------------3--1-----------------------1--3--
A|--1--3--1--3--1--3--------1--3-----------1--3--1--3--1--3--------
E|-----------------------3-----------------------------------------
B|-----------------------------------------------------------------

Stave 5:

G|-----------------------------------------------------------------------------
D|--------------------------------3--1-----------------------1--3--5--3--1--3--
A|--1--3--1--3--1--3--------1--3-----------1--3--1--3--1--3--------------------
E|-----------------------3-----------------------------------------------------
B|-----------------------------------------------------------------------------

Stave 6:

G|---------------
D|---------------
A|---------------
E|--4--6--8--10--
B|---------------

Stave 7:

G|---------------------------------------------------------------------------------
D|-----------------------------------------------------------------------8--9--10--
A|--3--3-----1--3-----------------------3--6--6-----6--8--8--------6--8------------
E|--------3--------3--4--4--4--6--4--6-----------6-----------6--6------------------
B|---------------------------------------------------------------------------------

Stave 8:

G|-----------------3--3--5--
D|-----1--3--3--5-----------
A|--3-----------------------
E|--------------------------
B|--------------------------

Stave 9:

G|--------------------------------------------------
D|--1-----1-----3-----1--1-----1-----1-----5--4--3--
A|-----3-----3-----3--------------3-----3-----------
E|--------------------------------------------------
B|--------------------------------------------------

Stave 10:

G|--------------------3--3--5--
D|-----------3-----------------
A|--5-----------5--3-----------
E|-----7--5--------------------
B|-----------------------------

Stave 11:

G|-----------------------------------
D|-----1--------1--------1-----------
A|--3-----3--3-----3--3-----3--1--1--
E|-----------------------------------
B|-----------------------------------

Stave 12:

G|--------------------------------------
D|-----1--------1--------1-----5--3--1--
A|--3-----3--3-----3--3-----3-----------
E|--------------------------------------
B|--------------------------------------

Stave 13:

G|-----------------------------------3--------------3--5--
D|-----1--------1-----5--3--1--3--------5--3--5--6--------
A|--3-----3--3-----3--------------------------------------
E|--------------------------------------------------------
B|--------------------------------------------------------

http://www.guitartabcreator.com
Guitar Tab Creator is intended to store guitar tab created through the tool. It currently does not support in-line text editing. Any text you place in here will be lost. If you need to comment on your tab, please use the "Tab Notes" section located below.