Sound will begin in 5 seconds

Marcos Barrientos Rey De Reyes

01234567891011121314151617181920212223
E
B
G
D
A
E
B
0 1 2 3 4 5 6 7 8 9 10 11 12 13 14 15 16 17 18 19 20 21 22 23
Song Science #1: How Pros Use 6 Chords to Write Hit Songs
(/) Slide Up  (\) Slide Down  (h) Hammer On  (p) Pull Off  (b) Bend (r) Release (v) Vibrato

Stave 1:

G|----------------
D|----------------
A|--5--12--7--10--
E|----------------
B|----------------

Stave 2:

G|--------------
D|--------------
A|--5-----7-----
E|-----5-----3--
B|--------------

Stave 3:

G|-----------------------------
D|-----------------------------
A|--5--5--5--5--5--7--9--7--5--
E|-----------------------------
B|-----------------------------

Stave 4:

G|-----------------------------
D|-----------------------------
A|-----------------------5-----
E|--5--5--5--5--5--5--7-----7--
B|-----------------------------

Stave 5:

G|-----------------------------
D|-----------------------------
A|--7--7--7--7--7--6--7--5-----
E|--------------------------7--
B|-----------------------------

Stave 6:

G|-----------------
D|-----------------
A|-----------------
E|--3--3--3--3--3--
B|-----------------

Stave 7:

G|-----------------------------
D|-----------------------------
A|--------7--5--4--------------
E|--7--5-----------7--5--3--5--
B|-----------------------------

Stave 8:

G|---------------------------
D|---------------------------
A|--10--5--5--7--5-----------
E|------------------5--7--5--
B|---------------------------

Stave 9:

G|---------------------------------------
D|--5--4---------------------------------
A|--------5-----------10--10--10--9------
E|-----------3--2--0-----------------10--
B|---------------------------------------

Stave 10:

G|--------------
D|--------------
A|--------5-----
E|--0--7-----5--
B|--------------

Stave 11:

G|--------------------------------------------------
D|--------------------------------------------------
A|--------7-----5--7--------7-----5--7--------5--7--
E|--0--0-----0--------0--0-----0--------0--0--------
B|--------------------------------------------------

Stave 12:

G|--------------------------------------------------
D|--------7-----7--9--------7-----7--9--7-----------
A|-----------9-----------------9-----------9--7--9--
E|--7--7--------------7--7--------------------------
B|--------------------------------------------------

Stave 13:

G|--------7--------
D|-----------7-----
A|--5--5--------5--
E|-----------------
B|-----------------

Stave 14:

G|--7--------
D|-----7-----
A|--------5--
E|-----------
B|-----------

Stave 15:

G|-----------------
D|--------7--------
A|-----------7-----
E|--5--5--------5--
B|-----------------

Stave 16:

G|-----------
D|--7--------
A|-----7-----
E|--------5--
B|-----------

Stave 17:

G|-----------------
D|--7--------------
A|-----7-----5--7--
E|--------0--------
B|-----------------

Stave 18:

G|---------------
D|---------------
A|--10--9--7--5--
E|---------------
B|---------------

http://www.guitartabcreator.com
Guitar Tab Creator is intended to store guitar tab created through the tool. It currently does not support in-line text editing. Any text you place in here will be lost. If you need to comment on your tab, please use the "Tab Notes" section located below.