Sound will begin in 5 seconds

Fernel Monroy Suena El Shofar

01234567891011121314151617181920212223
E
B
G
D
A
E
B
0 1 2 3 4 5 6 7 8 9 10 11 12 13 14 15 16 17 18 19 20 21 22 23
Song Science #1: How Pros Use 6 Chords to Write Hit Songs
(/) Slide Up  (\) Slide Down  (h) Hammer On  (p) Pull Off  (b) Bend (r) Release (v) Vibrato

Stave 1:

G|-----------------------------------
D|-----------------------------------
A|--0--5--5--3--5--3--5--5--3--------
E|-----------------------------5--3--
B|-----------------------------------

Stave 2:

G|--------------------------------------
D|--------------------------------------
A|--0--5--5--3--5--3--5--5--3-----8--7--
E|-----------------------------5--------
B|--------------------------------------

Stave 3:

G|--------------------------------
D|--------------------------------
A|--5--5--3--5--3--5--5--3--------
E|--------------------------5--3--
B|--------------------------------

Stave 4:

G|-----------------------
D|-----------------------
A|-----------3--5--8--7--
E|--3--5--6--------------
B|-----------------------

Stave 5:

G|--------------------------------------
D|-----------------------5-----7--5-----
A|-----5-----3--5--------------------7--
E|--------5--------5--3-----5-----------
B|--3-----------------------------------

Stave 6:

G|-----------------------------------------
D|-----------------------5-----7--5--6--7--
A|-----5-----3--5--------------------------
E|--------5--------5--3-----5--------------
B|--3--------------------------------------

Stave 7:

G|--------------------------------------------
D|-----------------------5--------------------
A|-----5-----3--5-----------------------------
E|--------5--------5--3-----3--3--3-----3--5--
B|--3--------------------------------6--------

Stave 8:

G|--------------------------------------------------------------------------------
D|-----------------------------------------------------------------3-----3--------
A|--1--1--------1-----3--3-----1--3--0--3--5--5-----3--5-----3--5-----5-----5--3--
E|--------0--3-----3--------3--------------------5--------5-----------------------
B|--------------------------------------------------------------------------------

Stave 9:

G|--------------------------------------------------------------------------
D|-----------------------------------------------------5--3-----3-----------
A|--1--1--1-----1--3--3-----1--3--0--3--5--5-----3--5--------5-----5--3-----
E|-----------3-----------3--------------------5--------------------------5--
B|--------------------------------------------------------------------------

Stave 10:

G|--------------------------------------------------------------------------
D|--------------------------------------------------------------3-----3-----
A|--1--1--1-----1--3--3-----1--3--0--3--5--5-----3--5-----3--5-----5-----5--
E|-----------3-----------3--------------------5--------5--------------------
B|--------------------------------------------------------------------------

Stave 11:

G|-----------------------------------------------------------------------------
D|-----------------------------------------------------------------------------
A|-----------------------------3-----3--5--3-----3--5--5--5--3-----3--5--3-----
E|--6--6--6--0--6--5--5--5--5-----5-----------5-----------------5-----------5--
B|-----------------------------------------------------------------------------

Stave 12:

G|-----------------------------------------------------------------------------
D|--------------------------------------------------------------3-----3--------
A|--1--1--1-----1--3--3-----1--3--0--3--5--5-----3--5-----3--5-----5-----5--3--
E|-----------3-----------3--------------------5--------5-----------------------
B|-----------------------------------------------------------------------------

Stave 13:

G|--------------------------------------
D|--------------------------------------
A|--------------------------------------
E|--------3--5--------------3--5--3--1--
B|--3--6--------3--3--6--3--------------

Stave 14:

G|-----------------------------------------
D|-----3-----5--7--------3-----5--7--5-----
A|--5-----5--------5--5-----5-----------8--
E|-----------------------------------------
B|-----------------------------------------

Stave 15:

G|-----7--5-----5--------
D|-----------7-----7--5--
A|--5--------------------
E|-----------------------
B|-----------------------

Stave 16:

G|--------------
D|--------------
A|--------------
E|--6--3--0--5--
B|--------------

Stave 17:

G|-----------------------------------------------
D|-----------------------------------------------
A|-----5-----5-----------5-----3--5-----3-----5--
E|--5-----------5-----------5--------------5-----
B|-----------------3-----------------------------

Stave 18:

G|--------------
D|--------------
A|-----------3--
E|-----3--5-----
B|--3-----------

Stave 19:

G|--------------------
D|--7--------7--------
A|-----7--9-----7--9--
E|--------------------
B|--------------------

http://www.guitartabcreator.com
Guitar Tab Creator is intended to store guitar tab created through the tool. It currently does not support in-line text editing. Any text you place in here will be lost. If you need to comment on your tab, please use the "Tab Notes" section located below.