Sound will begin in 5 seconds

Barak Cantaremos De Tu Amor

01234567891011121314151617181920212223
E
B
G
D
A
E
B
0 1 2 3 4 5 6 7 8 9 10 11 12 13 14 15 16 17 18 19 20 21 22 23
Song Science #1: How Pros Use 6 Chords to Write Hit Songs
(/) Slide Up  (\) Slide Down  (h) Hammer On  (p) Pull Off  (b) Bend (r) Release (v) Vibrato

Stave 1:

G|-----------
D|-----------
A|-----6-----
E|--3-----6--
B|-----------

Stave 2:

G|-----------------------
D|-----------------------
A|-----6-----------------
E|--3-----6-----6-----6--
B|-----------------6-----

Stave 3:

G|--------------------------
D|--------------------------
A|-----6--------5--6--5-----
E|--3-----6--------------6--
B|--------------------------

Stave 4:

G|---------------------------
D|---------------------------
A|--------6--10--------6--8--
E|--3--6---------3--6--------
B|---------------------------

Stave 5:

G|--------------5-----------------------7-----------
D|--------5--------5--------------7--------7--------
A|--3--3-----3--------3--4--5--5-----5--------5--6--
E|--------------------------------------------------
B|--------------------------------------------------

Stave 6:

G|--------------8---------------------------12--------------
D|--------8--------8----------------12----------12----------
A|--6--6-----6--------6--7--10--10------10----------10--10--
E|----------------------------------------------------------
B|----------------------------------------------------------

Stave 7:

G|--------------8--------------
D|--------8--------8-----------
A|--6--6-----6--------6--7-----
E|-----------------------------
B|-----------------------------

Stave 8:

G|--------------------
D|--------3-----------
A|--3--5-----5--3-----
E|-----------------3--
B|--------------------

http://www.guitartabcreator.com
Guitar Tab Creator is intended to store guitar tab created through the tool. It currently does not support in-line text editing. Any text you place in here will be lost. If you need to comment on your tab, please use the "Tab Notes" section located below.