Howling tab

Chords

01234567891011121314151617181920212223
E
B
G
D
A
E
B
0 1 2 3 4 5 6 7 8 9 10 11 12 13 14 15 16 17 18 19 20 21 22 23
(/) Slide Up  (\) Slide Down  (h) Hammer On  (p) Pull Off  (b) Bend (r) Release (v) Vibrato

Stave 1:

E|--2--4-----|--6--9--2--|--2--4-----|-----2--9--2--|--2--4-----|--9--4--2--|--2--4--6--4--2--1--2--|--
B|--------2--|-----------|--------2--|--2-----------|--------2--|-----------|-----------------------|--
G|-----------|-----------|-----------|--------------|-----------|-----------|-----------------------|--
D|-----------|-----------|-----------|--------------|-----------|-----------|-----------------------|--
A|-----------|-----------|-----------|--------------|-----------|-----------|-----------------------|--
E|-----------|-----------|-----------|--------------|-----------|-----------|-----------------------|--

Stave 2:

E|-----------|--------------------------|--2--1-----------|--------------------------|-----------------------|--
B|--------4--|--4-----2-----------------|--------4--2--4--|--4-----2-----------------|-----------------2--4--|--
G|-----------|-----3-----1--3-----1-----|-----------------|-----3-----1--3-----1-----|--------------1--------|--
D|--3--4-----|-----------------4-----1--|-----------------|-----------------4-----1--|-----1--3--4-----------|--
A|-----------|--------------------------|-----------------|--------------------------|--4--------------------|--
E|-----------|--------------------------|-----------------|--------------------------|-----------------------|--

Stave 3:

E|--2--4--6--4--2--------4--6--2--4--6-----|-----------------------------|--------------|--
B|-----------------4--2-----------------4--|-----------------------------|-----------4--|--
G|-----------------------------------------|-----1--3--1-----------1--3--|-----1--3-----|--
D|-----------------------------------------|--4-----------4--1-----------|--4-----------|--
A|-----------------------------------------|--------------------4--------|--------------|--
E|-----------------------------------------|-----------------------------|--------------|--

Stave 4:

E|--4--6--4--2--4--6-----2--4--2--------|-----------2--1-----1--2--1--------|--
B|--------------------4-----------4--2--|-----2--4--------4-----------4-----|--
G|--------------------------------------|--3-----------------------------3--|--
D|--------------------------------------|-----------------------------------|--
A|--------------------------------------|-----------------------------------|--
E|--------------------------------------|-----------------------------------|--

Stave 5:

E|--------------1--4--6--4--2--4--6-----2--9--6--4--6--2-----|-----------1--2--1-----1--2-----------|--
B|--------2--4-----------------------4--------------------4--|-----2--4-----------4--------4--2--4--|--
G|--1--3-----------------------------------------------------|--3-----------------------------------|--
D|-----------------------------------------------------------|--------------------------------------|--
A|-----------------------------------------------------------|--------------------------------------|--
E|-----------------------------------------------------------|--------------------------------------|--

Stave 6:

E|-----2--6--4--|--2--4--6--4--4--2--4--2-----|--------2-----|--6--6--7--6--9--2--4--|--
B|--4-----------|--------------------------4--|--2--4-----4--|-----------------------|--
G|--------------|-----------------------------|--------------|-----------------------|--
D|--------------|-----------------------------|--------------|-----------------------|--
A|--------------|-----------------------------|--------------|-----------------------|--
E|--------------|-----------------------------|--------------|-----------------------|--

Stave 7:

E|-----------|-----2--6--4--|--2--4--6--4--4--2--4--2--|--------2-----6--6--7--6--9--2-----|--
B|--4--2--4--|--4-----------|--------------------------|--2--4-----4--------------------4--|--
G|-----------|--------------|--------------------------|-----------------------------------|--
D|-----------|--------------|--------------------------|-----------------------------------|--
A|-----------|--------------|--------------------------|-----------------------------------|--
E|-----------|--------------|--------------------------|-----------------------------------|--

Stave 8:

E|--------------------------|--2--1-----------------------------------|-----------------------|--
B|--4-----2-----------------|--------4--2--4--4-----2-----------------|-----------------2--4--|--
G|-----3-----1--3-----1-----|--------------------3-----1--3-----1-----|--------------1--------|--
D|-----------------4-----1--|--------------------------------4-----1--|-----1--3--4-----------|--
A|--------------------------|-----------------------------------------|--4--------------------|--
E|--------------------------|-----------------------------------------|-----------------------|--

Stave 9:

E|--2--4--6--4--2--------4--6--|--2--4--6-----|-----------------------------|--------------|--
B|-----------------4--2--------|-----------4--|-----------------------------|-----------4--|--
G|-----------------------------|--------------|-----1--3--1-----------1--3--|-----1--3-----|--
D|-----------------------------|--------------|--4-----------4--1-----------|--4-----------|--
A|-----------------------------|--------------|--------------------4--------|--------------|--
E|-----------------------------|--------------|-----------------------------|--------------|--

Stave 10:

E|--4--6--4--2--4--6-----2--4--2--------|-----------2--1-----1--2--1--------|--
B|--------------------4-----------4--2--|-----2--4--------4-----------4-----|--
G|--------------------------------------|--3-----------------------------3--|--
D|--------------------------------------|-----------------------------------|--
A|--------------------------------------|-----------------------------------|--
E|--------------------------------------|-----------------------------------|--

Stave 11:

E|--------------1--4--6--4--2--4--6-----2--9--6--4--6--2-----|-----------1--2--1-----1--2-----------|--
B|--------2--4-----------------------4--------------------4--|-----2--4-----------4--------4--2--4--|--
G|--1--3-----------------------------------------------------|--3-----------------------------------|--
D|-----------------------------------------------------------|--------------------------------------|--
A|-----------------------------------------------------------|--------------------------------------|--
E|-----------------------------------------------------------|--------------------------------------|--

Stave 12:

E|-----------------2--1--|-----1-----1-----4--2--|-----2-----2-----4--2--|--------1--------1-----|-----------------2-----|--
B|-----4-----4-----------|-----------------------|--4-----------4--------|-----4--------2-----4--|-----4-----4--------2--|--
G|-----------------------|--1-----1--------------|-----------------------|--3--------3-----------|-----------------------|--
D|--4-----------4--------|-----------------------|--------1--------------|-----------------------|--4-----------4--------|--
A|--------2--------------|--------------4--------|-----------------------|-----------------------|--------2--------------|--
E|-----------------------|-----------------------|-----------------------|-----------------------|-----------------------|--

Stave 13:

E|-----2-----2-----4--1--|-----1-----1-----4--1--|--------1--6--4--1-----|--
B|-----------------------|--2-----------2--------|-----2--------------4--|--
G|--3-----3--------------|-----------------------|-----------------------|--
D|-----------------------|-----------------------|--3--------------------|--
A|--------------4--------|--------4--------------|-----------------------|--
E|-----------------------|-----------------------|-----------------------|--

Stave 14:

E|-----------------2--1--|-----1-----1-----4--2--|-----2-----2-----4--2--|--------1--------1-----|-----------------2-----|--
B|-----4-----4-----------|-----------------------|--4-----------4--------|-----4--------2-----4--|-----4-----4--------2--|--
G|-----------------------|--1-----1--------------|-----------------------|--3--------3-----------|-----------------------|--
D|--4-----------4--------|-----------------------|--------1--------------|-----------------------|--4-----------4--------|--
A|--------2--------------|--------------4--------|-----------------------|-----------------------|--------2--------------|--
E|-----------------------|-----------------------|-----------------------|-----------------------|-----------------------|--

Stave 15:

E|-----2-----2-----4-----|-----4-----------4-----|--------|--
B|--------------------4--|--4--------4--------4--|-----4--|--
G|--3-----3--------------|--------------1--------|--1-----|--
D|-----------------------|-----------------------|--------|--
A|--------------4--------|-----------------------|--------|--
E|-----------------------|--------4--------------|--------|--

Stave 16:

E|-----------|--------------------------|--2--1-----------------------------------|-----------------------|--
B|-----------|--4-----2-----------------|--------4--2--4--4-----2-----------------|-----------------2--4--|--
G|-----------|-----3-----1--3-----1-----|--------------------3-----1--3-----1-----|--------------1--------|--
D|--3--4--1--|-----------------4-----1--|--------------------------------4-----1--|-----1--3--4-----------|--
A|-----------|--------------------------|-----------------------------------------|--4--------------------|--
E|-----------|--------------------------|-----------------------------------------|-----------------------|--

Stave 17:

E|--------------------------|--2--1-----------------------------------|-----------------------
B|--4-----2-----------------|--------4--2--4--4-----2-----------------|-----------------2--4--
G|-----3-----1--3-----1-----|--------------------3-----1--3-----1-----|--------------1--------
D|-----------------4-----1--|--------------------------------4-----1--|-----1--3--4-----------
A|--------------------------|-----------------------------------------|--4--------------------
E|--------------------------|-----------------------------------------|-----------------------

							http://www.guitartabcreator.com
Instruments
{"strings":[[[2,4,".","|",6,9,2,"|",2,4,".","|",".",2,9,2,"|",2,4,".","|",9,4,2,"|",2,4,6,4,2,1,2,"|"],[".",".",2,"|",".",".",".","|",".",".",2,"|",2,".",".",".","|",".",".",2,"|",".",".",".","|",".",".",".",".",".",".",".","|"],[".",".",".","|",".",".",".","|",".",".",".","|",".",".",".",".","|",".",".",".","|",".",".",".","|",".",".",".",".",".",".",".","|"],[".",".",".","|",".",".",".","|",".",".",".","|",".",".",".",".","|",".",".",".","|",".",".",".","|",".",".",".",".",".",".",".","|"],[".",".",".","|",".",".",".","|",".",".",".","|",".",".",".",".","|",".",".",".","|",".",".",".","|",".",".",".",".",".",".",".","|"],[".",".",".","|",".",".",".","|",".",".",".","|",".",".",".",".","|",".",".",".","|",".",".",".","|",".",".",".",".",".",".",".","|"]],[[".",".",".","|",".",".",".",".",".",".",".",".","|",2,1,".",".",".","|",".",".",".",".",".",".",".",".","|",".",".",".",".",".",".",".","|"],[".",".",4,"|",4,".",2,".",".",".",".",".","|",".",".",4,2,4,"|",4,".",2,".",".",".",".",".","|",".",".",".",".",".",2,4,"|"],[".",".",".","|",".",3,".",1,3,".",1,".","|",".",".",".",".",".","|",".",3,".",1,3,".",1,".","|",".",".",".",".",1,".",".","|"],[3,4,".","|",".",".",".",".",".",4,".",1,"|",".",".",".",".",".","|",".",".",".",".",".",4,".",1,"|",".",1,3,4,".",".",".","|"],[".",".",".","|",".",".",".",".",".",".",".",".","|",".",".",".",".",".","|",".",".",".",".",".",".",".",".","|",4,".",".",".",".",".",".","|"],[".",".",".","|",".",".",".",".",".",".",".",".","|",".",".",".",".",".","|",".",".",".",".",".",".",".",".","|",".",".",".",".",".",".",".","|"]],[[2,4,6,4,2,".",".",4,6,2,4,6,".","|",".",".",".",".",".",".",".",".",".","|",".",".",".",".","|"],[".",".",".",".",".",4,2,".",".",".",".",".",4,"|",".",".",".",".",".",".",".",".",".","|",".",".",".",4,"|"],[".",".",".",".",".",".",".",".",".",".",".",".",".","|",".",1,3,1,".",".",".",1,3,"|",".",1,3,".","|"],[".",".",".",".",".",".",".",".",".",".",".",".",".","|",4,".",".",".",4,1,".",".",".","|",4,".",".",".","|"],[".",".",".",".",".",".",".",".",".",".",".",".",".","|",".",".",".",".",".",".",4,".",".","|",".",".",".",".","|"],[".",".",".",".",".",".",".",".",".",".",".",".",".","|",".",".",".",".",".",".",".",".",".","|",".",".",".",".","|"]],[[4,6,4,2,4,6,".",2,4,2,".",".","|",".",".",".",2,1,".",1,2,1,".",".","|"],[".",".",".",".",".",".",4,".",".",".",4,2,"|",".",2,4,".",".",4,".",".",".",4,".","|"],[".",".",".",".",".",".",".",".",".",".",".",".","|",3,".",".",".",".",".",".",".",".",".",3,"|"],[".",".",".",".",".",".",".",".",".",".",".",".","|",".",".",".",".",".",".",".",".",".",".",".","|"],[".",".",".",".",".",".",".",".",".",".",".",".","|",".",".",".",".",".",".",".",".",".",".",".","|"],[".",".",".",".",".",".",".",".",".",".",".",".","|",".",".",".",".",".",".",".",".",".",".",".","|"]],[[".",".",".",".",1,4,6,4,2,4,6,".",2,9,6,4,6,2,".","|",".",".",".",1,2,1,".",1,2,".",".",".","|"],[".",".",2,4,".",".",".",".",".",".",".",4,".",".",".",".",".",".",4,"|",".",2,4,".",".",".",4,".",".",4,2,4,"|"],[1,3,".",".",".",".",".",".",".",".",".",".",".",".",".",".",".",".",".","|",3,".",".",".",".",".",".",".",".",".",".",".","|"],[".",".",".",".",".",".",".",".",".",".",".",".",".",".",".",".",".",".",".","|",".",".",".",".",".",".",".",".",".",".",".",".","|"],[".",".",".",".",".",".",".",".",".",".",".",".",".",".",".",".",".",".",".","|",".",".",".",".",".",".",".",".",".",".",".",".","|"],[".",".",".",".",".",".",".",".",".",".",".",".",".",".",".",".",".",".",".","|",".",".",".",".",".",".",".",".",".",".",".",".","|"]],[[".",2,6,4,"|",2,4,6,4,4,2,4,2,".","|",".",".",2,".","|",6,6,7,6,9,2,4,"|"],[4,".",".",".","|",".",".",".",".",".",".",".",".",4,"|",2,4,".",4,"|",".",".",".",".",".",".",".","|"],[".",".",".",".","|",".",".",".",".",".",".",".",".",".","|",".",".",".",".","|",".",".",".",".",".",".",".","|"],[".",".",".",".","|",".",".",".",".",".",".",".",".",".","|",".",".",".",".","|",".",".",".",".",".",".",".","|"],[".",".",".",".","|",".",".",".",".",".",".",".",".",".","|",".",".",".",".","|",".",".",".",".",".",".",".","|"],[".",".",".",".","|",".",".",".",".",".",".",".",".",".","|",".",".",".",".","|",".",".",".",".",".",".",".","|"]],[[".",".",".","|",".",2,6,4,"|",2,4,6,4,4,2,4,2,"|",".",".",2,".",6,6,7,6,9,2,".","|"],[4,2,4,"|",4,".",".",".","|",".",".",".",".",".",".",".",".","|",2,4,".",4,".",".",".",".",".",".",4,"|"],[".",".",".","|",".",".",".",".","|",".",".",".",".",".",".",".",".","|",".",".",".",".",".",".",".",".",".",".",".","|"],[".",".",".","|",".",".",".",".","|",".",".",".",".",".",".",".",".","|",".",".",".",".",".",".",".",".",".",".",".","|"],[".",".",".","|",".",".",".",".","|",".",".",".",".",".",".",".",".","|",".",".",".",".",".",".",".",".",".",".",".","|"],[".",".",".","|",".",".",".",".","|",".",".",".",".",".",".",".",".","|",".",".",".",".",".",".",".",".",".",".",".","|"]],[[".",".",".",".",".",".",".",".","|",2,1,".",".",".",".",".",".",".",".",".",".",".","|",".",".",".",".",".",".",".","|"],[4,".",2,".",".",".",".",".","|",".",".",4,2,4,4,".",2,".",".",".",".",".","|",".",".",".",".",".",2,4,"|"],[".",3,".",1,3,".",1,".","|",".",".",".",".",".",".",3,".",1,3,".",1,".","|",".",".",".",".",1,".",".","|"],[".",".",".",".",".",4,".",1,"|",".",".",".",".",".",".",".",".",".",".",4,".",1,"|",".",1,3,4,".",".",".","|"],[".",".",".",".",".",".",".",".","|",".",".",".",".",".",".",".",".",".",".",".",".",".","|",4,".",".",".",".",".",".","|"],[".",".",".",".",".",".",".",".","|",".",".",".",".",".",".",".",".",".",".",".",".",".","|",".",".",".",".",".",".",".","|"]],[[2,4,6,4,2,".",".",4,6,"|",2,4,6,".","|",".",".",".",".",".",".",".",".",".","|",".",".",".",".","|"],[".",".",".",".",".",4,2,".",".","|",".",".",".",4,"|",".",".",".",".",".",".",".",".",".","|",".",".",".",4,"|"],[".",".",".",".",".",".",".",".",".","|",".",".",".",".","|",".",1,3,1,".",".",".",1,3,"|",".",1,3,".","|"],[".",".",".",".",".",".",".",".",".","|",".",".",".",".","|",4,".",".",".",4,1,".",".",".","|",4,".",".",".","|"],[".",".",".",".",".",".",".",".",".","|",".",".",".",".","|",".",".",".",".",".",".",4,".",".","|",".",".",".",".","|"],[".",".",".",".",".",".",".",".",".","|",".",".",".",".","|",".",".",".",".",".",".",".",".",".","|",".",".",".",".","|"]],[[4,6,4,2,4,6,".",2,4,2,".",".","|",".",".",".",2,1,".",1,2,1,".",".","|"],[".",".",".",".",".",".",4,".",".",".",4,2,"|",".",2,4,".",".",4,".",".",".",4,".","|"],[".",".",".",".",".",".",".",".",".",".",".",".","|",3,".",".",".",".",".",".",".",".",".",3,"|"],[".",".",".",".",".",".",".",".",".",".",".",".","|",".",".",".",".",".",".",".",".",".",".",".","|"],[".",".",".",".",".",".",".",".",".",".",".",".","|",".",".",".",".",".",".",".",".",".",".",".","|"],[".",".",".",".",".",".",".",".",".",".",".",".","|",".",".",".",".",".",".",".",".",".",".",".","|"]],[[".",".",".",".",1,4,6,4,2,4,6,".",2,9,6,4,6,2,".","|",".",".",".",1,2,1,".",1,2,".",".",".","|"],[".",".",2,4,".",".",".",".",".",".",".",4,".",".",".",".",".",".",4,"|",".",2,4,".",".",".",4,".",".",4,2,4,"|"],[1,3,".",".",".",".",".",".",".",".",".",".",".",".",".",".",".",".",".","|",3,".",".",".",".",".",".",".",".",".",".",".","|"],[".",".",".",".",".",".",".",".",".",".",".",".",".",".",".",".",".",".",".","|",".",".",".",".",".",".",".",".",".",".",".",".","|"],[".",".",".",".",".",".",".",".",".",".",".",".",".",".",".",".",".",".",".","|",".",".",".",".",".",".",".",".",".",".",".",".","|"],[".",".",".",".",".",".",".",".",".",".",".",".",".",".",".",".",".",".",".","|",".",".",".",".",".",".",".",".",".",".",".",".","|"]],[[".",".",".",".",".",2,1,"|",".",1,".",1,".",4,2,"|",".",2,".",2,".",4,2,"|",".",".",1,".",".",1,".","|",".",".",".",".",".",2,".","|"],[".",4,".",4,".",".",".","|",".",".",".",".",".",".",".","|",4,".",".",".",4,".",".","|",".",4,".",".",2,".",4,"|",".",4,".",4,".",".",2,"|"],[".",".",".",".",".",".",".","|",1,".",1,".",".",".",".","|",".",".",".",".",".",".",".","|",3,".",".",3,".",".",".","|",".",".",".",".",".",".",".","|"],[4,".",".",".",4,".",".","|",".",".",".",".",".",".",".","|",".",".",1,".",".",".",".","|",".",".",".",".",".",".",".","|",4,".",".",".",4,".",".","|"],[".",".",2,".",".",".",".","|",".",".",".",".",4,".",".","|",".",".",".",".",".",".",".","|",".",".",".",".",".",".",".","|",".",".",2,".",".",".",".","|"],[".",".",".",".",".",".",".","|",".",".",".",".",".",".",".","|",".",".",".",".",".",".",".","|",".",".",".",".",".",".",".","|",".",".",".",".",".",".",".","|"]],[[".",2,".",2,".",4,1,"|",".",1,".",1,".",4,1,"|",".",".",1,6,4,1,".","|"],[".",".",".",".",".",".",".","|",2,".",".",".",2,".",".","|",".",2,".",".",".",".",4,"|"],[3,".",3,".",".",".",".","|",".",".",".",".",".",".",".","|",".",".",".",".",".",".",".","|"],[".",".",".",".",".",".",".","|",".",".",".",".",".",".",".","|",3,".",".",".",".",".",".","|"],[".",".",".",".",4,".",".","|",".",".",4,".",".",".",".","|",".",".",".",".",".",".",".","|"],[".",".",".",".",".",".",".","|",".",".",".",".",".",".",".","|",".",".",".",".",".",".",".","|"]],[[".",".",".",".",".",2,1,"|",".",1,".",1,".",4,2,"|",".",2,".",2,".",4,2,"|",".",".",1,".",".",1,".","|",".",".",".",".",".",2,".","|"],[".",4,".",4,".",".",".","|",".",".",".",".",".",".",".","|",4,".",".",".",4,".",".","|",".",4,".",".",2,".",4,"|",".",4,".",4,".",".",2,"|"],[".",".",".",".",".",".",".","|",1,".",1,".",".",".",".","|",".",".",".",".",".",".",".","|",3,".",".",3,".",".",".","|",".",".",".",".",".",".",".","|"],[4,".",".",".",4,".",".","|",".",".",".",".",".",".",".","|",".",".",1,".",".",".",".","|",".",".",".",".",".",".",".","|",4,".",".",".",4,".",".","|"],[".",".",2,".",".",".",".","|",".",".",".",".",4,".",".","|",".",".",".",".",".",".",".","|",".",".",".",".",".",".",".","|",".",".",2,".",".",".",".","|"],[".",".",".",".",".",".",".","|",".",".",".",".",".",".",".","|",".",".",".",".",".",".",".","|",".",".",".",".",".",".",".","|",".",".",".",".",".",".",".","|"]],[[".",2,".",2,".",4,".","|",".",4,".",".",".",4,".","|",".",".","|"],[".",".",".",".",".",".",4,"|",4,".",".",4,".",".",4,"|",".",4,"|"],[3,".",3,".",".",".",".","|",".",".",".",".",1,".",".","|",1,".","|"],[".",".",".",".",".",".",".","|",".",".",".",".",".",".",".","|",".",".","|"],[".",".",".",".",4,".",".","|",".",".",".",".",".",".",".","|",".",".","|"],[".",".",".",".",".",".",".","|",".",".",4,".",".",".",".","|",".",".","|"]],[[".",".",".","|",".",".",".",".",".",".",".",".","|",2,1,".",".",".",".",".",".",".",".",".",".",".","|",".",".",".",".",".",".",".","|"],[".",".",".","|",4,".",2,".",".",".",".",".","|",".",".",4,2,4,4,".",2,".",".",".",".",".","|",".",".",".",".",".",2,4,"|"],[".",".",".","|",".",3,".",1,3,".",1,".","|",".",".",".",".",".",".",3,".",1,3,".",1,".","|",".",".",".",".",1,".",".","|"],[3,4,1,"|",".",".",".",".",".",4,".",1,"|",".",".",".",".",".",".",".",".",".",".",4,".",1,"|",".",1,3,4,".",".",".","|"],[".",".",".","|",".",".",".",".",".",".",".",".","|",".",".",".",".",".",".",".",".",".",".",".",".",".","|",4,".",".",".",".",".",".","|"],[".",".",".","|",".",".",".",".",".",".",".",".","|",".",".",".",".",".",".",".",".",".",".",".",".",".","|",".",".",".",".",".",".",".","|"]],[[".",".",".",".",".",".",".",".","|",2,1,".",".",".",".",".",".",".",".",".",".",".","|",".",".",".",".",".",".","."],[4,".",2,".",".",".",".",".","|",".",".",4,2,4,4,".",2,".",".",".",".",".","|",".",".",".",".",".",2,4],[".",3,".",1,3,".",1,".","|",".",".",".",".",".",".",3,".",1,3,".",1,".","|",".",".",".",".",1,".","."],[".",".",".",".",".",4,".",1,"|",".",".",".",".",".",".",".",".",".",".",4,".",1,"|",".",1,3,4,".",".","."],[".",".",".",".",".",".",".",".","|",".",".",".",".",".",".",".",".",".",".",".",".",".","|",4,".",".",".",".",".","."],[".",".",".",".",".",".",".",".","|",".",".",".",".",".",".",".",".",".",".",".",".",".","|",".",".",".",".",".",".","."]]],"numberofstrings":6,"notes":["E","B","G","D","A","E","B"],"capo":0,"stringnotes":["E4","B3","G3","D3","A2","E2"],"comments":["Stave 1:","Stave 2:","Stave 3:","Stave 4:","Stave 5:","Stave 6:","Stave 7:","Stave 8:","Stave 9:","Stave 10:","Stave 11:","Stave 12:","Stave 13:","Stave 14:","Stave 15:","Stave 16:","Stave 17:"],"timing":[[null,null,null,null,null,null,null,null,null,null,null,null,null,null,null,null,null,null,null,null,null,null,null,null,null,null,null,null,null,null,null,null],[null,null,null,null,null,null,null,null,null,null,null,null,null,null,null,null,null,null,null,null,null,null,null,null,null,null,null,null,null,null,null,null,null,null,null],["W","W","W","W","W","W","W","W","W","W","W","W","W",null,"W","W","W","W","W","W","W","W","W",null,"W","W","W","W"],["W","W","W","W","W","W","W","W","W","W","W","W",null,"W","W","W","W","W","W","W","W","W","W","W"],["W","W","W","W","W","W","W","W","W","W","W","W","W","W","W","W","W","W","W",null,"W","W","W","W","W","W","W","W","W","W","W","W"],["W","W","W","W",null,"W","W","W","W","W","W","W","W","W",null,"W","W","W","W",null,"W","W","W","W","W","W","W"],["W","W","W",null,"W","W","W","W",null,"W","W","W","W","W","W","W","W",null,"W","W","W","W","W","W","W","W","W","W","W"],["W","W","W","W","W","W","W","W",null,"W","W","W","W","W","W","W","W","W","W","W","W","W",null,"W","W","W","W","W","W","W"],["W","W","W","W","W","W","W","W","W",null,"W","W","W","W",null,"W","W","W","W","W","W","W","W","W",null,"W","W","W","W"],["W","W","W","W","W","W","W","W","W","W","W","W",null,"W","W","W","W","W","W","W","W","W","W","W"],["W","W","W","W","W","W","W","W","W","W","W","W","W","W","W","W","W","W","W",null,"W","W","W","W","W","W","W","W","W","W","W","W"],["W","W","W","W","W","W","W",null,"W","W","W","W","W","W","W",null,"W","W","W","W","W","W","W",null,"W","W","W","W","W","W","W",null,"W","W","W","W","W","W","W",null,"W","W","W","W","W","W","W",null,"W","W","W"],["W","W","W","W","W","W","W",null,"W","W","W","W","W","W","W",null,"W","W","W","W","W","W","W"],["W","W","W","W","W","W","W",null,"W","W","W","W","W","W","W",null,"W","W","W","W","W","W","W",null,"W","W","W","W","W","W","W",null,"W","W","W","W","W","W","W"],["W","W","W","W","W","W","W",null,"W","W","W","W","W","W","W",null,"W","W"],["W","W","W",null,"W","W","W","W","W","W","W","W",null,"W","W","W","W","W","W","W","W","W","W","W","W","W",null,"W","W","W","W","W","W","W"],["W","W","W","W","W","W","W","W",null,"W","W","W","W","W","W","W","W","W","W","W","W","W",null,"W","W","W","W","W","W","W"]],"timingvisible":false,"tabcounter":30,"stave":16,"totalstaves":17,"instrument":"6guitar","selectedtuning":"6_standard","version":"13"}

Member for

1 week 3 days
Submitted by chemrepnacl on Fri, 2020-07-31 08:55