Sound will begin in 5 seconds

I Could Have Lied

01234567891011121314151617181920212223
E
B
G
D
A
E
B
0 1 2 3 4 5 6 7 8 9 10 11 12 13 14 15 16 17 18 19 20 21 22 23
Song Science #1: How Pros Use 6 Chords to Write Hit Songs
(/) Slide Up  (\) Slide Down  (h) Hammer On  (p) Pull Off  (b) Bend (r) Release (v) Vibrato

Stave 1:

E|--------------------------------------------------------------------------------------------------
B|--------------------------------------------------------------------------------------------------
G|--------------------------------------------------------------------------------------------------
D|----------------------------------4---------------------------------------------------------------
A|-------10--9v--5h7v--4--5--4h5p4-----4-------5----------5---------------------------------12h14v--
E|--5/7-----------------------------------5/7-----7--5h7-----7--10--9--7--5/7v--7/14h15p14----------

Stave 2:

E|-------------------------------------------------------------------------------------------
B|-------------------------------------------------------------------------------------------
G|-------------------------------------------------------------------------------------------
D|-----------------------------------------------------------------------------------14h16v--
A|--14b16--14b17--14p12------------12-----------------------------------------14h17----------
E|-----------------------14p12h14------14--14h15--14h15--14h15--12/14--14h15-----------------

Stave 3:

E|------------------------------------------------------------------
B|------------------------------------------------------------------
G|--16b18--16p14----------------------------------------------------
D|----------------16p14--16--17p14h16-------------------------------
A|-------------------------------------16h17--14v--14p12------------
E|--------------------------------------------------------14p12--14\

http://www.guitartabcreator.com
Guitar Tab Creator is intended to store guitar tab created through the tool. It currently does not support in-line text editing. Any text you place in here will be lost. If you need to comment on your tab, please use the "Tab Notes" section located below.