Esta Dañada - Ivan Cornejo (requinto)

01234567891011121314151617181920212223
E
B
G
D
A
E
B
0 1 2 3 4 5 6 7 8 9 10 11 12 13 14 15 16 17 18 19 20 21 22 23
(/) Slide Up  (\) Slide Down  (h) Hammer On  (p) Pull Off  (b) Bend (r) Release (v) Vibrato

Stave 1:

E|-----4-----4-------7-----2--
B|--5-----5-----5/9-----4-----
G|----------------------------
D|----------------------------
A|----------------------------
E|----------------------------

Stave 2:

E|-----------------------
B|--4r2--4r2--4r2--------
G|-----------------1--2--
D|-----------------------
A|-----------------------
E|-----------------------

Stave 3:

E|-----4-----4-------7-----2--
B|--5-----5-----5/9-----4-----
G|----------------------------
D|----------------------------
A|----------------------------
E|----------------------------

Stave 4:

E|-----------------------7-----7-----7-----7-----7-----7-----7-----7-------
B|--4r2--4r2--4--5--5/9-----9-----9-----9-----9-----9-----9-----9-----9\7--
G|-------------------------------------------------------------------------
D|-------------------------------------------------------------------------
A|-------------------------------------------------------------------------
E|-------------------------------------------------------------------------

Stave 5:

E|--5-----5-----5-----5-------4-----4-------2--
B|-----7-----7-----7-----7\5-----5-----5\4-----
G|---------------------------------------------
D|---------------------------------------------
A|---------------------------------------------
E|---------------------------------------------

							http://www.guitartabcreator.com
Chords

Instruments
{"strings":[[[".",4,".",4,".",".",".",7,".",2],[5,".",5,".",5,"/",9,".",4,"."],[".",".",".",".",".",".",".",".",".","."],[".",".",".",".",".",".",".",".",".","."],[".",".",".",".",".",".",".",".",".","."],[".",".",".",".",".",".",".",".",".","."]],[[".",".",".",".",".",".",".",".",".",".","."],[4,"r",2,4,"r",2,4,"r",2,".","."],[".",".",".",".",".",".",".",".",".",1,2],[".",".",".",".",".",".",".",".",".",".","."],[".",".",".",".",".",".",".",".",".",".","."],[".",".",".",".",".",".",".",".",".",".","."]],[[".",4,".",4,".",".",".",7,".",2],[5,".",5,".",5,"/",9,".",4,"."],[".",".",".",".",".",".",".",".",".","."],[".",".",".",".",".",".",".",".",".","."],[".",".",".",".",".",".",".",".",".","."],[".",".",".",".",".",".",".",".",".","."]],[[".",".",".",".",".",".",".",".",".",".",".",7,".",7,".",7,".",7,".",7,".",7,".",7,".",7,".",".","."],[4,"r",2,4,"r",2,4,5,5,"/",9,".",9,".",9,".",9,".",9,".",9,".",9,".",9,".",9,"\\",7],[".",".",".",".",".",".",".",".",".",".",".",".",".",".",".",".",".",".",".",".",".",".",".",".",".",".",".",".","."],[".",".",".",".",".",".",".",".",".",".",".",".",".",".",".",".",".",".",".",".",".",".",".",".",".",".",".",".","."],[".",".",".",".",".",".",".",".",".",".",".",".",".",".",".",".",".",".",".",".",".",".",".",".",".",".",".",".","."],[".",".",".",".",".",".",".",".",".",".",".",".",".",".",".",".",".",".",".",".",".",".",".",".",".",".",".",".","."]],[[5,".",5,".",5,".",5,".",".",".",4,".",4,".",".",".",2],[".",7,".",7,".",7,".",7,"\\",5,".",5,".",5,"\\",4,"."],[".",".",".",".",".",".",".",".",".",".",".",".",".",".",".",".","."],[".",".",".",".",".",".",".",".",".",".",".",".",".",".",".",".","."],[".",".",".",".",".",".",".",".",".",".",".",".",".",".",".",".","."],[".",".",".",".",".",".",".",".",".",".",".",".",".",".",".",".","."]]],"numberofstrings":6,"notes":["E","B","G","D","A","E","B"],"capo":0,"stringnotes":["E4","B3","G3","D3","A2","E2"],"comments":["Stave 1:","Stave 2:","Stave 3:","Stave 4:","Stave 5:"],"timing":[["W","W","W","W","W",null,"W","W","W","W"],["W",null,"W","W",null,"W","W",null,"W","W","W"],["W","W","W","W","W",null,"W","W","W","W"],["W",null,"W","W",null,"W","W","W","W",null,"W","W","W","W","W","W","W","W","W","W","W","W","W","W","W","W","W",null,"W"],["W","W","W","W","W","W","W","W",null,"W","W","W","W","W",null,"W","W"]],"timingvisible":false,"tabcounter":17,"stave":4,"totalstaves":5,"instrument":"6guitar","selectedtuning":"6_standard","version":"13"}

Member for

1 year 3 months
About Me
Guitar and Bass player
Submitted by Chay2002 on Fri, 2021-11-12 12:07