Sound will begin in 5 seconds

Cry Me a River

Chords
01234567891011121314151617181920212223
E
B
G
D
A
E
B
0 1 2 3 4 5 6 7 8 9 10 11 12 13 14 15 16 17 18 19 20 21 22 23
Song Science #1: How Pros Use 6 Chords to Write Hit Songs
(/) Slide Up  (\) Slide Down  (h) Hammer On  (p) Pull Off  (b) Bend (r) Release (v) Vibrato

Stave 1:

E|-----------7----------7--------------------------------------------8-----8--10--8--7-----------------
B|-----------8----------8--------------------0--------1--------------9-----9---------6-----------------
G|-----------11--10--9--8--------------------5--3--2--1--------------8-----8---------8-----------------
D|----------------------------------------------------2--------------8-----8---------7--------------1--
A|-----6--7----------------9--7--6--5-----0--------------0-----------9--9--9------------------------2--
E|--7----------------------------------0--------------------4--3--2---------------------7--5--0--1-----

Stave 2:

E|--------2-----------0----------------------------7-----5-----------------------------------------------
B|--------0-----------1-----------2----------------8-----5-----------5--3--5-----0-----0-----2-----0-----
G|--------0--------0-----0-----4-----0----------7-----0--5--------------5--3-----4-----0-----2-----2--3--
D|-----2-----2----------------------------------------------------5-----4--4--0--5--5--2-----2--0--1-----
A|--------------------------------------8/9--7--------------7-----------5--5-----3-----------2-----2-----
E|--0-----------0-----------0----------------------------5-----5--------------------------3--------------

Stave 3:

E|--------0---------------------------------2--1p0-------5------------------------3--------5--7-----
B|--0-----5-----6--5--6\5--------0-----2p0--0--0---------5------------------------3--------5--7-----
G|--------7-----------7----5-----0----------2--2---------5----------2b3--------0--4-----0--5--8-----
D|--------7-----------6----6--0--2----------2--2------------7b8-------------2-----------------------
A|--------------------7----5-----4-------------------------------0-------5-----------9-----------9--
E|-----7-----7----------------------0---------------0h2--5------------------------3-----------7-----

Stave 4:

E|--------2-----------0----------------------------7-----5-----------------------------------------------
B|--------0-----------1-----------2----------------8-----5-----------5--3--5-----0-----0-----2-----0-----
G|--------0--------0-----0-----4-----0----------7-----0--5--------------5--3-----4-----0-----2-----2--3--
D|-----2-----2----------------------------------------------------5-----4--4--0--5--5--2-----2--0--1-----
A|--------------------------------------8/9--7--------------7-----------5--5-----3-----------------2-----
E|--0-----------0-----------0----------------------------5-----5--------------------------3--------------

Stave 5:

E|--------------------------------------------2--1p0-------5---------------------------------------
B|--0-----5--6--5-------6\5--------0-----2p0--0--0---------5---------------------------3--3-----3--
G|--------7-------------7----5-----0----------2--2---------5----------0--2b3--------0--5--------4--
D|--------7-------------6----6--0--2----------2--2------------7b8----------------2-----5-----5-----
A|----------------------7----5-----4-------------------------------0----------5--------------------
E|-----7-----------7p0----------------0---------------0h2--5---------------------------3-----------

Stave 6:

E|-----5--3--7-------------9--------------------------------5--3--7--0h2--0-------------------5--3-----5--
B|-----3-----7--0----------7--------------------------------3--2--7-------0--------3/5--5-----------3-----
G|-----3-----7-----6h7-----7-------3h4--------6--4--6b7-----3-----7-------1-----1-------4-----------3-----
D|-----------6----------6-----4h6----------5----------------------6----------0----------5--5--------------
A|--------------------------------------4---------------------------------2-------------4-----------------
E|--2----------------------------------------------------2------------------------------------------2-----

Stave 7:

E|--5--3--7-------------9-----------------------------6-----7----------------------------4--5--------------
B|--3-----7--0----------7-----------------------------5-----7----------------------------------2--0--2--0--
G|--------7-----5h6-----7-------3h4-----6--4--6b7-----6-----8--6-----6-----6-----6h8-----4--6--2-----------
D|--------6----------6-----4h6----------4----------4-----4--6-----9-----9-----9-------9--3--4--2-----------
A|-----------------------------------4---------------------------------------------------------------------
E|---------------------------------------------------------------------------------------------2-----------

Stave 8:

E|----------------------2-----------0----------------------------7-----5--------------------------------
B|--2--0--3b4--0--------0-----------1-----------2----------------8-----5-----------5--3--5-----0-----0--
G|--2-------------------0--------0-----0-----4-----0----------7-----0--5--------------5--3-----4-----0--
D|--1----------------2-----2----------------------------------------------------5-----4--4--0--5--5--2--
A|--2-------------------------------------------------8/9--7--------------7-----------5--5-----3--------
E|----------------0-----------0-----------0----------------------------5-----5--------------------------

Stave 9:

E|-----------------------------------------------------------2-----0----5------------------------------
B|-----2-----0-----0-----5--6--5-------6\5--------0-----2p0-----0-------5------------------------0--5--
G|-----2-----2--3--------7-------------7----5-----0----------2----------5----------0--2b3-----2-----5--
D|-----2--0--1-----------7-------------6----6--0--2----------2-------------7b8-------------5--------5--
A|-----------2-------------------------7----5-----4-----------------------------0----------------------
E|--3-----------------7-----------7p0----------------0----------------2/5---------------------------5--

Stave 10:

E|-----------------------7----------7-----------------------------------5------------------------------
B|-----5-----------------8----------8--------------------0--------1-----5---------------------------5--
G|-----5-----4-----------11--10--9--8--------------------5--3--2--1-----5----------0--2b3--------0--5--
D|--0--5--0--5----------------------------------------------------2--2-----7b8----------------2-----5--
A|-----5-----------6--7----------------9--7--6--5-----0-------------------------0----------5-----------
E|-----------3--7----------------------------------0--------------------5---------------------------5--

Stave 11:

E|-----------------------5---------------------------------------------------5---------------------------
B|-----5-----------5-----5---------------------------5-----5-----5-----5-----5---------------------------
G|-----5-----4-----4-----5----------0--2b3--------0--5-----5-----4-----4-----5----------0--2b3--------0--
D|--0--5--0--5--5-----------7b8----------------2-----5--0--5--0--5--5-----------7b8----------------2-----
A|-----5-------------------------0----------5--------------5-------------------------0----------5--------
E|-----------3--------4--5---------------------------5-----------3--------4--5---------------------------

Stave 12:

E|--------------------------5-------------------------------------------------------
B|--5-----5-----5-----5-----5-------------------------5--------------------5--------
G|--5-----5-----4-----4-----5----------0--2--------0--5--------5--------4--------4--
D|--5--0--5--0--5--5-----------7b8--------0-----2-----5-----5--------4--------4-----
A|--------5-------------------------0--------5-----------5--------------------------
E|--5-----------3--------4--5-------------------------5-----------3-----------------

Stave 13:

E|--
B|--
G|--
D|--
A|--
E|--

http://www.guitartabcreator.com
Guitar Tab Creator is intended to store guitar tab created through the tool. It currently does not support in-line text editing. Any text you place in here will be lost. If you need to comment on your tab, please use the "Tab Notes" section located below.