Sound will begin in 5 seconds

Bohemian Rhapsody

01234567891011121314151617181920212223
E
B
G
D
A
E
B
0 1 2 3 4 5 6 7 8 9 10 11 12 13 14 15 16 17 18 19 20 21 22 23
Song Science #1: How Pros Use 6 Chords to Write Hit Songs
(/) Slide Up  (\) Slide Down  (h) Hammer On  (p) Pull Off  (b) Bend (r) Release (v) Vibrato

Stave 1:

G|--0--|--3--|-----|--------|-----
D|-----|-----|--1--|--------|--3--
A|-----|-----|-----|--3--3--|-----
E|-----|-----|-----|--------|-----

Stave 2:

G|--------|--------|-----|-----|-----
D|--1--0--|--------|--3--|-----|-----
A|--------|--4--3--|-----|--1--|--1--
E|--------|--------|-----|-----|-----

Stave 3:

G|--3--|--0--|-----|--------|--3--3--|--0--|--5--4--3--|--2--1--0--
D|-----|-----|-----|-----3--|--------|-----|-----------|-----------
A|-----|-----|--3--|--3-----|--------|-----|-----------|-----------
E|-----|-----|-----|--------|--------|-----|-----------|-----------

Stave 4:

G|--------|-----|--------------|-----------|--------|-----1--|-----|-----
D|--1--0--|-----|--3--2--1--0--|-----------|--1--0--|--------|--1--|--1--
A|--------|--3--|--------------|--1--1--1--|--------|--3-----|-----|-----
E|--------|-----|--------------|-----------|--------|--------|-----|-----

Stave 5:

G|-----|--------------------|--------------------
D|-----|--------------------|--------------------
A|--1--|--0--0--0--0--0--0--|--------------------
E|-----|--------------------|--4--4--4--4--1--1--

Stave 6:

G|-----|--------------------|-----
D|-----|--------------------|-----
A|--1--|--1--1--2--1--------|-----
E|-----|--------------4--2--|--1--

Stave 7:

G|-----------------|--------------------|--1--0--|-----------------|-----
D|--1--1--1--1--1--|--1--1--1--1--1--1--|--------|--3--2--0--------|-----
A|-----------------|--------------------|--------|-----------3--1--|--1--
E|-----------------|--------------------|--------|-----------------|-----

Stave 8:

G|-----------3--|--3--3--3--3--3--
D|--1-----------|-----------------
A|-----1--------|-----------------
E|--------------|-----------------

Stave 9:

G|--------------|-----3-----|--3--3--|--5--3--1--0--------3--|--------1--1--1--|--------------0--0--|-----
D|--------0-----|--4-----1--|--------|--------------3--------|--1--1-----------|--0--0--0--0--------|-----
A|--2--0-----4--|-----------|--------|-----------------------|-----------------|--------------------|--1--
E|--------------|-----------|--------|-----------------------|-----------------|--------------------|-----

Stave 10:

G|--------|-----------|--------------|--------0--|--1--1-----|--------0--|--------0--|--------|-----
D|--1--0--|-----------|-----------1--|--0--0-----|--------1--|-----------|-----------|--------|-----
A|--------|--3--2--3--|--2--3--1-----|-----------|-----------|--3--3-----|--3--3-----|--3-----|--1--
E|--------|-----------|--------------|-----------|-----------|-----------|-----------|-----4--|-----

Stave 11:

G|-----|-----|--------|--------|--------|-----
D|--1--|--1--|--------|--------|-----3--|--3--
A|-----|-----|--5--4--|--3--3--|--3-----|-----
E|-----|-----|--------|--------|--------|-----

Stave 12:

G|--
D|--
A|--
E|--

Stave 13:

G|--
D|--
A|--
E|--

Stave 14:

G|--
D|--
A|--
E|--

http://www.guitartabcreator.com
Guitar Tab Creator is intended to store guitar tab created through the tool. It currently does not support in-line text editing. Any text you place in here will be lost. If you need to comment on your tab, please use the "Tab Notes" section located below.