Sound will begin in 5 seconds

Tears in heavn

Chords
01234567891011121314151617181920212223
E
B
G
D
A
E
B
0 1 2 3 4 5 6 7 8 9 10 11 12 13 14 15 16 17 18 19 20 21 22 23
Song Science #1: How Pros Use 6 Chords to Write Hit Songs
(/) Slide Up  (\) Slide Down  (h) Hammer On  (p) Pull Off  (b) Bend (r) Release (v) Vibrato

Stave 1:

E|-----------------------------0---0-------------------------------------------------------------------------
B|-----------------2h3h2-------0-------2---2-------2---2-------3---3-------3---3---2---2-------2---2---------
G|-------------2-----------2-----------2---2-------2---2-------2---2-------2---1---2---2-------2---2---------
D|-----------------------------------------------------------------------------------------------------------
A|---------0-----------------------------------------------------------------------0-------0---0-------------
E|---0h2-----------------------4-------2-------2---0-------0---2-------2---0---0-----------------------0h2---

Stave 2:

E|-----------------------0-----------------------------------------------------------------------------------
B|-----------2h3p2-------0-------2---2-------2---2-------3---3---2---3---2-------0---0-------2-------3-------
G|-------2-----------2-----------2---2-------2---2-------2---2---------------2---1---1-------2-------4-------
D|-----------------------------------------------------------------------------------------------------------
A|---0-------------------------------------------------------------------------------------------------------
E|-----------------------4---4---2-------2---0-------0---2-------0-----------0-----------0-------0-------0---

Stave 3:

E|-------------------0-----------2-------------------------------------------------------------------------------
B|-----------2-------0-------2-------2-------2---2-------3---3-------2---3---2-------0---0-------2-------3-------
G|-----------2---------------2-------2-------2---2-------2---2-------------------2---1---1-------2-------4-------
D|---------------------------------------------------------------------------------------------------------------
A|---0---0-------0-----------------------------------------------------------------------------------------------
E|-------------------4---4---2-----------2---0-------0---2-------2---0---------------0-------0-------0-------0---

Stave 4:

E|-----------2---------------2---------------1---------------1---------------0---------------0-------
B|-------2-------2-------2-------2-------2-------2-------2-------2-------2-------2-------2-------2---
G|-----------2---------------2---------------1---------------1---------------0---------------0-------
D|---------------------------------------------------------------------------------------------------
A|---------------------------------------------------------------------------------------------------
E|---2---------------2---------------1---------------1---------------0---------------0---------------

Stave 5:

E|----------------------0---0---------------------------------------------------
B|----------2-------2-----------------------------------------------------------
G|--------------3-------4---6-------7-------7---7-------------------7---7---7---
D|--------------------------------------7-------7-------0-----------7---7---7---
A|------------------------------------------------------------------9---9---9---
E|------2---------------4---6---7---------------7---9-------7---0---0---0---0---

Stave 6:

E|-------------------0---0---------------------------------------------------
B|-----------2-------0-------2---2-------2---2-------3---3-------3---3---2---
G|-------2-------2-----------2---2-------2---2-------2---2-------2---1---2--------
D|---------------------------------------------------------------------------
A|---0-------------------------------------------------------------------0--------
E|-------------------4-------2-------2---0-------0---2-------2---0---0-------

Stave 7:

E|---9p5---9/12---12---9---7---5---10---10---9---7---5---9---7---
B|---------------------------------------------------------------
G|---------------------------------11---11---9---7---6---9---7---
D|---------------------------------------------------------------
A|---------------------------------------------------------------
E|---------------------------------------------------------------

Stave 8:

E|------5---5---7---4---3---3---5---2---7---9---10---9---7---5---4p2p0---9---7---5h7---5---
B|-----------------------------------------------------------------------------------------
G|--------------------------------------9---9---11-----------------------9---7---6-----6---
D|-----------------------------------------------------------------------------------------
A|-----------------------------------------------------------------------------------------
E|-----------------------------------------------------------------------------------------

http://www.guitartabcreator.com
Guitar Tab Creator is intended to store guitar tab created through the tool. It currently does not support in-line text editing. Any text you place in here will be lost. If you need to comment on your tab, please use the "Tab Notes" section located below.