Sound will begin in 5 seconds

Lewis and Clark

Chords
01234567891011121314151617181920212223
E
B
G
D
A
E
B
0 1 2 3 4 5 6 7 8 9 10 11 12 13 14 15 16 17 18 19 20 21 22 23
Song Science #1: How Pros Use 6 Chords to Write Hit Songs
(/) Slide Up  (\) Slide Down  (h) Hammer On  (p) Pull Off  (b) Bend (r) Release (v) Vibrato

Stave 1:

E|--0--0-----3h5p3p0-----------0--3--2-----------------------3h5p3p0-----------5h6p5p0--3p2p0p
B|--3--5-----------------------0--------------------------------------------------------------
G|-----------------------------1--------------------------------------------------------------
D|-----------------------------2--------------------------------------------------------------
A|-----------------------------2--------------------------------------------------------------
E|--------0-----------0--------0-----------3--2--5-----0--------------0--0--0-----------------

Stave 2:

E|--3p2p0--3p2p0-----------5h6h7-----------2h3-----5h7--------10h12-----2h3-----5h7-----3h5-----
B|----------------------------------------------------------------------------------------------
G|----------------------------------------------------------------------------------------------
D|----------------------------------------------------------------------------------------------
A|-------------------------------------------------------------------------------------------0--
E|----------------2--3--5---------0-------------------------------------------------------------

Stave 3:

E|-----------0-----------0-----------0--5--3p0-----
B|--------5-----5-----5-----5-----5----------------
G|-----2-----------2-----------2-------------------
D|-------------------------------------------------
A|-------------------------------------------------
E|----------------------------------------------0--

Stave 4:

E|--0--0--3--3h5p3p0-----------6p5p0--6p5p0--6p5p0--------5h6p5--3--3h5--------
B|--3--5-----------------------------------------------------------------5-----
G|-----------------------------------------------------------------------------
D|-----------------------------------------------------------------------------
A|-----------------------------------------------------------------------------
E|--------------------0-----------------------------0-----------------------0--

Stave 5:

E|--3h5p3p0-----0h3p0-------------0h3--3h5-----------5-----------------5p3--3h5p3p0-----
B|-----------5---------------3/5------------------------5-----------5----------------5--
G|------------------------------------------------0-----------0-------------------------
D|--------------------------------------------------------------------------------------
A|---------------------------------------------3-----------3----------------------------
E|---------------------0----------------------------------------------------------------

Stave 6:

E|-----------0-----0h5--2h3p2p0h2-----------2h3p2p0h2-----------------2h3p2p0h2-------
B|--------5------------------------------3-------------3-----------3-------------3/5--
G|-----0------------------------------2-------------------2-----2---------------------
D|---------------------------------0-------------------------0------------------------
A|--3---------------------------------------------------------------------------------
E|------------------------------------------------------------------------------------

Stave 7:

E|--0--------0-------------0-------------0------------------------
B|--------5-----5-------5-----5-------5-----5---------------------
G|-----2-----------0h2-----------0h2-----------0--2--3\2p0--------
D|----------------------------------------------------------2-----
A|----------------------------------------------------------------
E|-------------------------------------------------------------0--

Stave 8:

E|-------0-----3p0--3h5-----------5--------------0h5--2h3p2p0h2-----------2h3p2p0h2--------
B|--3/5-----5------------------5-----5---------------------------------3-------------3-----
G|--------------------------0-----------0---------------------------2-------------------2--
D|---------------------------------------------------------------0-------------------------
A|-----------------------3-----------------3-----------------------------------------------
E|-----------------------------------------------------------------------------------------

Stave 9:

E|--------------------------------------------12-----
B|--0h5--2h3p2p0-------0------------------12---------
G|----------------2/4------------------9-------------
D|---------------------------------12----------------
A|---------------------------------------------------
E|------------------------------0-----------------0--

Stave 10:

E|--
B|--
G|--
D|--
A|--
E|--

http://www.guitartabcreator.com
Guitar Tab Creator is intended to store guitar tab created through the tool. It currently does not support in-line text editing. Any text you place in here will be lost. If you need to comment on your tab, please use the "Tab Notes" section located below.