Sound will begin in 5 seconds

Classical gas

Chords
01234567891011121314151617181920212223
E
B
G
D
A
E
B
0 1 2 3 4 5 6 7 8 9 10 11 12 13 14 15 16 17 18 19 20 21 22 23
Song Science #1: How Pros Use 6 Chords to Write Hit Songs
(/) Slide Up  (\) Slide Down  (h) Hammer On  (p) Pull Off  (b) Bend (r) Release (v) Vibrato

Stave 1:

E|---------------------------------------------------------0----------0----------0----------5--7--8--7--5--3--
B|-----------0h1-----1p0--------------------------------------1p0--------1p0--------1p0-----------------------
G|--------2-------2-------------0--------0-----4p2p0h2-------------2----------2----------2--------------------
D|-----2---------------------0--------0-----------------2-----------------------------------------------------
A|--0---------------------------------------------------------------------------------------0-----------------
E|------------------------3--------2--------0-----------------------------------------------------------------

Stave 2:

E|--------------------0--0-------------------0--3--0--0--2--3--0--5--7--
B|--------------------0-----3p1p0---------0--1--0--1--1--3--0--0--4--6--
G|--------0--------0--0------------2p0h2-----2--0--0--2--2--0--1--5--7--
D|-----0--------0-----2----------------------2--0--2--3--0--0--0--4--6--
A|--------------------2----------------------0--2--3-----0--2--2--------
E|--3--------2--------0-------------------------3--------2--3--0--------

Stave 3:

E|--8--7--5--5--5--------------8--7--5--5--5--------------8--7--5--5--5-----
B|--5--5--5--8--7--------------5--5--5--7--5--7--7--7--7--5--5--5--8--5--7--
G|----------------------------------------------------------------------7--
D|-------------0--0--0--0--0--------------------------------------------7--
A|--0--0--0--0-----------------0--0--0--0--0--5--5--5--5--0--0--0--0--0--5--
E|-------------------------------------------------------------------------

Stave 4:

E|--3--0--0--0--0--------0--------0--------------0--0--------0--------0---------
B|--0--1--1--3-----3--------3--------3-----------0-----3--------3--------3------
G|--0--0--2--2--------2--------2--------2--------1--------1--------1--------1--
D|--0--2--3--3-----------------------------------0------------------------------
A|--2--3-----2-----------------------------------2------------------------------
E|--3--------------------------------------3--1--0--------------------------

Stave 5:

E|------------------------------------------------------------------------
B|--1p0-----0--1p0--------------------0-----------0-----------------------
G|-------2----------------0--------0-----2--0--2--------0--2-----0--2-----
D|---------------------0--------0-----------2-----------0--2-----0--2-----
A|--0------------------------------------------------0--------0--------0--
E|------------------3--------2--------0-----------------------------------

Stave 6:

E|----------------------------------------------------0--0--3--0--1--2--3--0--5--7--7-------------
B|--1p0-----0--1p0--------------------0-----------0--1--1--0--1--1--3--0--0--4--6-----6----------
G|--------2----------------0--------0-----2--0--2-----2--2--0--0--2--2--0--1--5--7--------7-------
D|----------------------0--------0-----------2--------2--2--0--2--3--0--0--0--4--6-----------6/7--
A|--0------------------------------------------------0--0--2--3-----0--2--2----------------------
E|-------------------3--------2--------0--------------------3--------2--3--0----------------------

Stave 7:

E|----8--7--5--5--5--5--5--5--5--8--7--5--5--5--5------------8--7--5--5--5--------------
B|----5--5--5--8--5--7--7--7--7--5--5--5--8--5--7------------5--5--5--8--5--7--7--7--7--
G|-------------------------------------------------7--12--7-----------------7--7--7--7--
D|-------------------0--0--0--0-----------------0---------------------------7--7--7--7--
A|----0--0--0--0--0--------------0--0--0--0--0---------------0--0--0--0--0--5--5--5--5--
E|--------------------------------------------------------------------------------------

Stave 8:

E|--3--3--0--0--1--1-----0--------0--------0--------------0--0--------0--------0------------
B|--0--0--1--1--1--1--3-----3--------3--------3-----------0-----0--------0-----0------------
G|--0--0--0--0--2--2--2--------2--------2--------2--------1--------1--------1--1------------
D|--0--0--2--2--3--3--3-----------------------------------0--------------------0------------
A|--2--2--3--3--------2-----------------------------------2--------------------2------------
E|--3--3--------------------------------------------3--1--0--------------------0--4/12\1p0--

Stave 9:

E|--0--0--------0--3--1--1--0--0--0-------------------------------------3--4--6p4p3--4--4--4--
B|--1--1--------1--1--1--1--1--1--1----------------------------------4---------------4--4--4--
G|--------0--0-----------------------0--0-----0-------------------3------------------5--5--5--
D|-----------------------------------------5-----5--3--2-------5---------------------6--6--6--
A|--3--3--3--3--3--3--3--3--3--3--3--3--3-----------------3/6---------------------------------
E|--------------------------------------------------------------------------------------------

Stave 10:

E|--5--6--7--8---9---10--11--12--------------12--12--12--12-----------12--12--12--12--------------12--12--12--
B|--6--6--8--8---10--10--12--9---------------9---9---9---10-----------10--10--10--11--------------11--11--11--
G|--5--7--7--9---9---11--11--9---------------9---9---9---11-----------11--11--11--12--------------12--12--12--
D|--7--8--9--10--11--12--13--9---------------9---9---9---10-----------10--10--10--11--------------11--11--11--
A|------------------------------------------------------------------------------------------------------------
E|---------------------------0---0--0--0--0--0---0---0---0---0--0--0--0---0---0---0---0--0--0--0--0---0---0---

Stave 11:

E|--12--12--
B|--11--12--
G|--12--13--
D|--11--12--
A|----------
E|--0---0---

http://www.guitartabcreator.com
Guitar Tab Creator is intended to store guitar tab created through the tool. It currently does not support in-line text editing. Any text you place in here will be lost. If you need to comment on your tab, please use the "Tab Notes" section located below.