Sound will begin in 5 seconds

Hotel California

Chords
01234567891011121314151617181920212223
E
B
G
D
A
E
B
0 1 2 3 4 5 6 7 8 9 10 11 12 13 14 15 16 17 18 19 20 21 22 23
Song Science #1: How Pros Use 6 Chords to Write Hit Songs
(/) Slide Up  (\) Slide Down  (h) Hammer On  (p) Pull Off  (b) Bend (r) Release (v) Vibrato

Stave 1:

E|--7--|--------------------7--|--------------|--------------9-----------|--12------------7---------|--
B|-----|-----------7-----------|-----7--------|--------7-----------7-----|---------10-----------10--|--
G|-----|-----7-----------7-----|--------7--9--|-----9-----------9--------|------9------------9------|--
D|--9--|--9-----9-----9-----9--|--9-----------|--8--------8-----------8--|--7----------7------------|--
A|-----|-----------------------|--------------|--------------------------|--------------------------|--
E|-----|-----------------------|--------------|--------------------------|--------------------------|--

Stave 2:

E|----------------------|-------------------------7---|-------------------------7---|--------------|--
B|--------10--------10--|----------------7------------|----------------8------------|--------------|--
G|-----9---------9------|---------7------------7------|---------7------------7------|-----------7--|--
D|--7-------------------|------9------------9---------|------9------------9---------|------7h9-----|--
A|------------7---------|--11--------11-----------11--|--10--------10-----------10--|--10----------|--
E|----------------------|-----------------------------|-----------------------------|--------------|--

Stave 3:

E|--------------10--------|---------------------|-----------------------7--|-----------------9--|--|--
B|--------7------------7--|--------7---------7--|--------------8-----------|-----------7--------|--|--
G|-----7------------7-----|-----7---------7-----|--------7-----------7-----|--------9-----9-----|--|--
D|--7--------7------------|---------------------|-----9-----------9--------|-----8--------------|--|--
A|------------------------|--9------------------|--7--------7-----------7--|--9-----------------|--|--
E|------------------------|-----------10--------|--------------------------|--------------------|--|--

http://www.guitartabcreator.com
Guitar Tab Creator is intended to store guitar tab created through the tool. It currently does not support in-line text editing. Any text you place in here will be lost. If you need to comment on your tab, please use the "Tab Notes" section located below.