Sound will begin in 5 seconds

Make Like Tom and Cruise

01234567891011121314151617181920212223
E
B
G
D
A
E
B
0 1 2 3 4 5 6 7 8 9 10 11 12 13 14 15 16 17 18 19 20 21 22 23
Song Science #1: How Pros Use 6 Chords to Write Hit Songs
(/) Slide Up  (\) Slide Down  (h) Hammer On  (p) Pull Off  (b) Bend (r) Release (v) Vibrato

Stave 1:

D|-------------------------------------------------------------
A|-------------------------------------------------------------
F|------------------------------------------------------12--9--
C|--9--10--12--10--9h10--9------9--10--12--10--9h10--9---------
G|--------------------------12---------------------------------
C|-------------------------------------------------------------

Stave 2:

D|---------------------------------------------------------
A|---------------------------------------------------------
F|---------12---------12---------12---------12---------12--
C|--9--10------9--10------9--10------9--10------9--10------
G|---------------------------------------------------------
C|---------------------------------------------------------

Stave 3:

D|---------------------------------------------------------
A|---------12---------12---------12--------------------12--
F|------------------------------------------12-------------
C|--9--10------9--10------9--10------9--10------9--10------
G|---------------------------------------------------------
C|---------------------------------------------------------

Stave 4:

D|-----------------------------------------------------------------------------------------------------
A|-----------------------------------------------------------------------------------------------------
F|-----------------------------------------------------------------------------------------------------
C|--------------10--10--10--9--9--------------10--10--10--9--9-----------10--10--10--9--9--12--12--12--
G|--12--12--12--------------------10--10--10--------------------7--7--7--------------------------------
C|-----------------------------------------------------------------------------------------------------

Stave 5:

D|--------------------------------------------------------------------------------
A|--------------------------------------------------------------------------------
F|--------------------14--14--14--------------------12--12--12--------------------
C|--10--10--10--9--9--------------10--10--10--9--9--------------10--10--10--9--9--
G|--------------------------------------------------------------------------------
C|--------------------------------------------------------------------------------

Stave 6:

D|-----------------------------------------------------------
A|-----------------------------------------------------------
F|--9--9--9--------------------------------------------------
C|-----------10--10--10--9--9--12--12--12--10--10--10--9--9--
G|-----------------------------------------------------------
C|-----------------------------------------------------------

http://www.guitartabcreator.com
Guitar Tab Creator is intended to store guitar tab created through the tool. It currently does not support in-line text editing. Any text you place in here will be lost. If you need to comment on your tab, please use the "Tab Notes" section located below.