Sound will begin in 5 seconds

Local Hero

Chords
01234567891011121314151617181920212223
E
B
G
D
A
E
B
0 1 2 3 4 5 6 7 8 9 10 11 12 13 14 15 16 17 18 19 20 21 22 23
Song Science #1: How Pros Use 6 Chords to Write Hit Songs
(/) Slide Up  (\) Slide Down  (h) Hammer On  (p) Pull Off  (b) Bend (r) Release (v) Vibrato

Stave 1:

E|---------------|--------------|---------------|----------------|------------------------|--------------
B|---------------|--------------|-----7--9--10--|--12--10--9--7--|------------------------|-----5--7--8--
G|-----7--9--11--|--------------|--6------------|----------------|--9--11--9--7-----------|--4-----------
D|--7------------|--9--7--2-----|---------------|----------------|---------------9--7--4--|--------------
A|---------------|-----------9--|---------------|----------------|------------------------|--------------
E|---------------|--------------|---------------|----------------|------------------------|--------------

Stave 2:

E|---------------------|------------|--------------------|-----------|--------------------|--
B|--8b10---------------|------------|--------------------|-----------|----------------10--|--
G|--------9--7---------|------------|--9/11--9\7---------|-----------|--2/11--11--11------|--
D|--------------9\7\4--|--4/7--9\7--|-------------9\7\4--|--4/7/9\7--|--------------------|--
A|---------------------|------------|--------------------|-----------|--------------------|--
E|---------------------|------------|--------------------|-----------|--------------------|--

Stave 3:

E|----------------------------|---------------|----------------------|-------------------------------|--
B|------10--12--14--12--10\7--|---------------|---------7--10/12\10--|-------------------------------|--
G|--11------------------------|-----9/11\9\7--|--9p7p9---------------|--------------7--9/11--11--11--|--
D|----------------------------|--7------------|----------------------|--------7--9-------------------|--
A|----------------------------|---------------|----------------------|--7--9-------------------------|--
E|----------------------------|---------------|----------------------|-------------------------------|--

Stave 4:

E|--------------------|--12b14--10--7---------------|----------------------|--
B|--------------------|----------------10--7--------|----------------------|--
G|--------------------|-----------------------9--7--|--------7--9/11\9--7--|--
D|-----9--7-----------|-----------------------------|--7--9----------------|--
A|--7--------9--7--4--|-----------------------------|----------------------|--
E|--------------------|-----------------------------|----------------------|--

Stave 5:

E|------------------------|--10--12--|----------------------|--
B|------------------------|--10------|--10--10--12--12--10--|--
G|------------------------|----------|--9---9---11--11--9---|--
D|--------------7--9--11--|----------|----------------------|--
A|--------7--9------------|----------|----------------------|--
E|--7--9------------------|----------|----------------------|--

http://www.guitartabcreator.com
Guitar Tab Creator is intended to store guitar tab created through the tool. It currently does not support in-line text editing. Any text you place in here will be lost. If you need to comment on your tab, please use the "Tab Notes" section located below.