Sound will begin in 5 seconds

Superman Bass tab

01234567891011121314151617181920212223
E
B
G
D
A
E
B
0 1 2 3 4 5 6 7 8 9 10 11 12 13 14 15 16 17 18 19 20 21 22 23
Song Science #1: How Pros Use 6 Chords to Write Hit Songs
(/) Slide Up  (\) Slide Down  (h) Hammer On  (p) Pull Off  (b) Bend (r) Release (v) Vibrato

Stave 1:

G|--------------------------------------------------------------------------------------------
D|-----4--5--4--------------------------0--2--0--4--0--------------------------------4--5--4--
A|--5-----------5--------4--5--7-----2-----------------4--2--0--------2--3--2-----5-----------
E|--------------------5--------------------------------------------3--------------------------

Stave 2:

G|--------------------------
D|--------------------------
A|-----4--5--4--7--5--4-----
E|--5--------------------5--

Stave 3:

G|--------------------------------------------------------------------------------------------------
D|--------------------------------------------------------------------------------------------------
A|--5--5--5--5--5--5--5--5--------------------------7--7--7--7--7--7--7--7--------------------------
E|--------------------------5--5--5--5--5--5--5--5--------------------------7--7--7--7--7--7--7--7--

Stave 4:

G|----------------------------------------------------------------------------------
D|----------------------------------------------------------------------------------
A|--7--7--7--7--7--7--7--7--9--9--9--9--9--9--9--9--10--10--10--10--10--10--10--10--
E|----------------------------------------------------------------------------------

Stave 5:

G|-----------------------0--0--0--0--0--0--0--0--2--2--2--2--------------
D|-----------------------------------------------------------------------
A|-----5--0--------4--2--------------------------------------3--3--3--3--
E|--3-----------2--------------------------------------------------------

http://www.guitartabcreator.com
Guitar Tab Creator is intended to store guitar tab created through the tool. It currently does not support in-line text editing. Any text you place in here will be lost. If you need to comment on your tab, please use the "Tab Notes" section located below.