Sound will begin in 5 seconds

Dani California bass tab

01234567891011121314151617181920212223
E
B
G
D
A
E
B
0 1 2 3 4 5 6 7 8 9 10 11 12 13 14 15 16 17 18 19 20 21 22 23
Song Science #1: How Pros Use 6 Chords to Write Hit Songs
(/) Slide Up  (\) Slide Down  (h) Hammer On  (p) Pull Off  (b) Bend (r) Release (v) Vibrato

Stave 1:

G|----------------------------------7-------------------
D|--------7-------------5--3--------------5h7--5--------
A|----------------------------5--5----------------7--5--
E|--5--5--------5\3--3----------------------------------

Stave 2:

G|----------------------------------7----------5----------
D|--------7-------------5--3--------------5h7----------5--
A|----------------------------5--5----------------5h7-----
E|--5--5--------5\3--3------------------------------------

Stave 3:

G|-------------------------------------------------------------------------------
D|--------7-------------5--3-----------------------------------------------------
A|----------------------------5-----5-----5--5--5--5--5--5--5--5--5--5--5--5--5--
E|--5--5--------5\3--3-----------------------------------------------------------

Stave 4:

G|----------------------------------------------------------------
D|----------------------------------------------------------------
A|--------------3--3-----3--3-----3/5--5--5-----------------------
E|--1--1--1----------------------------------3--3-----3--3--3--3--

Stave 5:

G|------------------------------------------------------------
D|-----------------9-----9------------------------------------
A|--------------9-----9-----9--7h9--10--10-----10--9--9--7h9--
E|--7--7-----7------------------------------------------------

http://www.guitartabcreator.com
Guitar Tab Creator is intended to store guitar tab created through the tool. It currently does not support in-line text editing. Any text you place in here will be lost. If you need to comment on your tab, please use the "Tab Notes" section located below.