Sound will begin in 5 seconds

Bon Jovi: Living on a Prayer

01234567891011121314151617181920212223
E
B
G
D
A
E
B
0 1 2 3 4 5 6 7 8 9 10 11 12 13 14 15 16 17 18 19 20 21 22 23
Song Science #1: How Pros Use 6 Chords to Write Hit Songs
(/) Slide Up  (\) Slide Down  (h) Hammer On  (p) Pull Off  (b) Bend (r) Release (v) Vibrato

Stave 1:

G|--------------------------------------------------
D|--------------------------------------------------
A|--7--7-----5--7--7-----5--7--7-----5--7--7-----5--
E|--------7-----------7-----------7-----------7-----

Stave 2:

G|--------------------------------------------------
D|--------------------------------------------------
A|-----7-----5-----------5-----7-----5-----------5--
E|--0-----7-----0--0--7-----0-----7-----0--0--7-----

Stave 3:

G|--------------------------------------------------------------------------------------
D|-----------------------------------------------------------------------4--------------
A|--3--3--3--5--5--5--5--5--5--5--7--7--7--5--3--3--3--5--5--5--5--5--7--------7--7--5--
E|--------------------------------------------------------------------------------------

Stave 4:

G|-----------------------------------------------------------------------------------------
D|-----------------------------------------------------------------------------------------
A|--3--3--3--5--5--5--5--5--5--5--5--7--7--7--7--3--------3--------3--5-----5-----5-----5--
E|--------------------------------------------------3--5-----3--5--------------------------

Stave 5:

G|--------------------------------------------------------------------------------------------------
D|--------------------------------------------2--4--5-----------------------------------------------
A|-----------3-----2--3--4--5--5--5--5--5--5-----------5--2--3-----2--3--4--5--5--5--5--5--5--------
E|--0--2--3-----------------------------------------------------------------------------------3--2--

Stave 6:

G|-----------------
D|-----5-----7/12--
A|--3--------------
E|-----------------

Stave 7:

G|--
D|--
A|--
E|--

http://www.guitartabcreator.com
Guitar Tab Creator is intended to store guitar tab created through the tool. It currently does not support in-line text editing. Any text you place in here will be lost. If you need to comment on your tab, please use the "Tab Notes" section located below.