Sound will begin in 5 seconds

CT

Chords
01234567891011121314151617181920212223
E
B
G
D
A
E
B
0 1 2 3 4 5 6 7 8 9 10 11 12 13 14 15 16 17 18 19 20 21 22 23
Song Science #1: How Pros Use 6 Chords to Write Hit Songs
(/) Slide Up  (\) Slide Down  (h) Hammer On  (p) Pull Off  (b) Bend (r) Release (v) Vibrato

Stave 1:

E|--------------------------------------------------------------------------------|--
B|--------------------------------------------------------------------------------|--
G|--------------------------------------------------------------------------------|--
D|--3-----------------------------------------------------------------------------|--
A|-----3--3--3--3--4--3--3--3--3-----3--3--3--3--3--4--3-----4--3-----6--4--3--4--|--
E|--------------------------------1-----------------------4--------4--------------|--

Stave 2:

E|--------------------------------------------------------------------------------------------|--
B|--------------------------------------------------------------------------------------------|--
G|--------------------------------------------------------------------------------------------|--
D|--3-----------------------------------------------------------------------------------------|--
A|-----3--3--3--3--4--3--3--3--3-----3--3--3--3--3--4--3-----4--3-----4--3-----6--4--3--4-----|--
E|--------------------------------1-----------------------4--------4--------4-----------------|--

Stave 3:

E|------------------------------|------------------------------------------|--
B|------------------------------|-------------------------------12---------|--
G|------------------------9-----|--------------------10-----10------10-----|--
D|-----6-----6---------8-----8--|-----6-----6-----9------9--------------9--|--
A|------------------------------|------------------------------------------|--
E|--9-----9-----9--11-----------|--9-----9-----9---------------------------|--

Stave 4:

E|------------------------------|---------------------------------------------------------------|--
B|------------------------------|-------------------------------12----------------------15------|--
G|------------------------9-----|--------------------10-----10------10------13------13------13--|--
D|-----6-----6---------8-----8--|-----6-----6-----9------9--------------12------12--------------|--
A|------------------------------|---------------------------------------------------------------|--
E|--9-----9-----9--11-----------|--9-----9-----9------------------------------------------------|--

Stave 5:

E|------------------------------|------------------------|--
B|------------------------------|--------14--11--14--17--|--
G|------------------------9-----|--------13--10--13--16--|--
D|-----6-----6---------8-----8--|-----6--12--9---12--15--|--
A|------------------------------|------------------------|--
E|--9-----9-----9--11-----------|--9---------------------|--

Stave 6:

E|------------------------------|---------------------------|--
B|------------------------------|--------9--10--9--9--9--9--|--
G|------------------------9-----|--------8--9---8--8--8--8--|--
D|-----6-----6---------8-----8--|-----6--7--8---7--7--7--7--|--
A|------------------------------|---------------------------|--
E|--9-----9-----9--11-----------|--9------------------------|--

Stave 7:

E|-----------------------------------------------------|--
B|-----------------------------------------------------|--
G|-----------------------------------7--9--------------|--
D|--------------5--4-----5-----------7--9-----7--------|--
A|--2--2--2--2--5--4-----5-----------5--7--------6-----|--
E|--0--0--0--0--3--2--0--3--0--0--0--------5--------5--|--

Stave 8:

E|---------------------------------------------------------------------------------------------------
B|---------------------------------------------------------------------------------------------------
G|---------------------------------------------------------------------------------------------------
D|--------------5--4-----5-----------7--9--------7--9--------9--10--------9--10--------11--12--------
A|--2--2--2--2--5--4-----5-----------5--7--0--0--5--7--0--0--7--8---0--0--7--8---0--0--9---10--0--0--
E|--0--0--0--0--3--2--0--3--0--0--0------------------------------------------------------------------

Stave 9:

E|--------------------------------------------|--
B|--------------------------------------------|--
G|--------------------------------------------|--
D|--11--12--------12--14--------12--14--------|--
A|--9---10--0--0--10--12--0--0--10--12--0--0--|--
E|--------------------------------------------|--

Stave 10:

E|------------------------------------------------------------------------------------------|--
B|------------------------------------------------------------------------------------------|--
G|------------------------9-----------------------------------------------------------------|--
D|-----6-----6---------8-----8-----6-----------------4-----------3--------------------------|--
A|---------------------------------------------------------------------------4-----------3--|--
E|--9-----9-----9--11-----------9-----9--2--2--2--2-----2--2--2-----2--2--2-----2--2--2-----|--

Stave 11:

E|-----------------------------------|------------------------------------11--|--
B|-----------------------------------|--------------------------------10------|--
G|--------------------------8--8--8--|--------------------------8--8----------|--
D|--7--7--7--7--7--7--------7--7--7--|--7--7--7--7--7--7--------7--7----------|--
A|--7--7--7--7--7--7-----------------|--7--7--7--7--7--7----------------------|--
E|--5--0--5--0--5--0--0--0-----------|--5--0--5--0--5--0--0--0----------------|--

Stave 12:

E|-----------------------------------|-----------------------------3--|--
B|-----------------------------------|--------------------------------|--
G|--------------------------5--5--5--|--------------------------5-----|--
D|--4--4--4--4--4--4--------5--5--5--|--4--4--4--4--4--4--------5-----|--
A|--4--4--4--4--4--4--------3--3--3--|--4--4--4--4--4--4--------3-----|--
E|--2--0--2--0--2--0--0--0-----------|--2--0--2--0--2--0--0--0--------|--

Stave 13:

E|--15--12--------------12--15--12----------4--5--11--12--|--
B|----------13------13--------------13--------------------|--
G|--------------12----------------------12----------------|--
D|--------------------------------------------------------|--
A|--------------------------------------------------------|--
E|--------------------------------------------------------|--

Stave 14:

E|--------------|--------------------|--7--7--7--7--7--7--|--
B|--6--6--5--6--|--10--10--9--7--10--|--7--7--7--7--6--6--|--
G|--5--5--5--5--|--9---9---9--7--9---|--7--7--7--7--6--6--|--
D|--3--3--3--3--|--0---0-------------|--------------------|--
A|--3--3--3--3--|--0---0-------------|--------------------|--
E|--------------|--------------------|--------------------|--

Stave 15:

E|--19--15--------------15--19--15--------------15--19--15----------|--
B|----------17------17--------------17------17--------------17------|--
G|--------------16----------------------16----------------------16--|--
D|------------------------------------------------------------------|--
A|------------------------------------------------------------------|--
E|------------------------------------------------------------------|--

Stave 16:

E|--19--14--------------14--19--14--------------14--19--14----------|--
B|----------16------16--------------16------16--------------16------|--
G|--------------15----------------------15----------------------15--|--
D|------------------------------------------------------------------|--
A|------------------------------------------------------------------|--
E|------------------------------------------------------------------|--

Stave 17:

E|--3--0---|--3-----------------------------3--3--|--
B|--6--0---|--6-----------------------------6--6--|--
G|--5--9---|--5-----------------------------5--5--|--
D|--3--10--|--3-----5--6--8--6--5--8--6--5--3--3--|--
A|-----0---|--------------------------------------|--
E|---------|-----8--------------------------------|--

Stave 18:

E|--0---0------------------------------------0---0---|--
B|--0---0------------------------------------0---0---|--
G|--9---9------------------------------------9---9---|--
D|--10--10------9--10--12--10--9--12--10--9--10--10--|--
A|--0---0------------------------------------0---0---|--
E|----------12---------------------------------------|--

Stave 19:

E|--11--8-----------8--11--16--13--------------13--16--------------------------|--
B|---------9-----9-----------------14------14----------15--13--12--------------|--
G|------------8------------------------13--------------------------15--13--12--|--
D|-----------------------------------------------------------------------------|--
A|-----------------------------------------------------------------------------|--
E|-----------------------------------------------------------------------------|--

Stave 20:

E|--9--6-----------6--9--14--10--------------10--14------------------------|--
B|--------7-----7----------------12------12--------------------------------|--
G|-----------6-----------------------11--------------12--10--9-------------|--
D|--------------------------------------------------------------12--10--9--|--
A|-------------------------------------------------------------------------|--
E|-------------------------------------------------------------------------|--

Stave 21:

E|--7--4-----------4--7--12--8-------------8--12--------------------|--
B|--------5-----5---------------10-----10---------------------------|--
G|-----------4----------------------9-------------9--7--6-----------|--
D|---------------------------------------------------------9--7--6--|--
A|------------------------------------------------------------------|--
E|------------------------------------------------------------------|--

Stave 22:

E|--7--4-----------4--|--9--6-----------6--|----------------------------------|--
B|--------6-----6-----|--------8-----8-----|----------------------------------|--
G|-----------7--------|-----------9--------|--------------14--16--17--16--14--|--
D|--------------------|--------------------|--12--14--15----------------------|--
A|--------------------|--------------------|----------------------------------|--
E|--------------------|--------------------|----------------------------------|--

Stave 23:

E|--3--3--3--3--3-----------------------------|--
B|--6--6--5--3--6-----------------------------|--
G|--5--5--5--5--5-----------------------------|--
D|--3--3--3--3--3-----------------------------|--
A|--3--3--3--3--3-----------------------------|--
E|-----------------3--3--3--2--2--2--1--1--1--|--

Stave 24:

E|--------------------------|--15--12--------------12--15--12--------------12--15--12----------|--
B|--------------------------|----------13------13--------------13------13--------------13------|--
G|--------------------8--8--|--------------12----------------------12----------------------12--|--
D|--7--7--7--7--7--7--7--7--|------------------------------------------------------------------|--
A|--7--7--7--7--7--7--0--0--|------------------------------------------------------------------|--
E|--5--5--5--5--5--5--------|------------------------------------------------------------------|--

Stave 25:

E|--11--7-----------7--11--7--------4--5--11--12--|-------------------------------|--
B|---------9-----9------------9-------------------|-------------------------------|--
G|------------8------------------8----------------|-------------------------------|--
D|------------------------------------------------|-----6-----6---------8--9--11--|--
A|------------------------------------------------|-------------------------------|--
E|------------------------------------------------|--9-----9-----9--11------------|--

Stave 26:

E|--------------------------------------------------|---------------------------------------------------
B|--------------------------------------------------|---------------------------------------------------
G|--------------------------------------------------|---------------------------------------------------
D|--9---------------------9-------------------------|--11----------------------11-----------------------
A|--------------10--9-----------------10--9--10--9--|---------------12--10------------------12--11--12--
E|-----7--7--7---------7-----7--7--7----------------|------9--9--9----------9------9--9--9--------------

Stave 27:

E|------|--------------------------------------------------------|------------------------------
B|------|--------------------------------------------------------|------------------------------
G|------|--------------------------------------------------------|------------------------------
D|------|--9---------------------9-----------7---------7---------|--11----------------------11--
A|--11--|--------------10--9--------------------10--9-----10--9--|---------------12--11---------
E|------|-----7--7--7---------7-----7--7--7----------------------|------9--9--9----------9------

Stave 28:

E|---------------------------------|--
B|---------------------------------|--
G|---------------------------------|--
D|-----------9----------9----------|--
A|--------------12--11-----12--11--|--
E|--9--9--9------------------------|--

Stave 29:

E|------------------------------|--------------------------|--------------------------------15----------
B|------------------------------|--------------------------|----------------------------13------13------
G|------------------------9-----|--------------------9-----|------------------------12--------------12--
D|-----6-----6---------8-----8--|-----6-----6-----8-----8--|-----6-----6--------------------------------
A|------------------------------|--------------------------|--------------------11----------------------
E|--9-----9-----9--11-----------|--9-----9-----9-----------|--9-----9-----9--8--------------------------

Stave 30:

E|--------------------15----------|-------------------------------------|--|--
B|----------------13------13------|-------------------------------------|--|--
G|------------12--------------12--|------------------------9------------|--|--
D|--------------------------------|-----6-----6---------8-----8---------|--|--
A|--------11----------------------|-------------------------------------|--|--
E|--8--8--------------------------|--9-----9-----9--11-----------11--9--|--|--

http://www.guitartabcreator.com
Guitar Tab Creator is intended to store guitar tab created through the tool. It currently does not support in-line text editing. Any text you place in here will be lost. If you need to comment on your tab, please use the "Tab Notes" section located below.