Sound will begin in 5 seconds

2016-01-21-1: punteo "glam rock"

Chords
01234567891011121314151617181920212223
E
B
G
D
A
E
B
0 1 2 3 4 5 6 7 8 9 10 11 12 13 14 15 16 17 18 19 20 21 22 23
Song Science #1: How Pros Use 6 Chords to Write Hit Songs
(/) Slide Up  (\) Slide Down  (h) Hammer On  (p) Pull Off  (b) Bend (r) Release (v) Vibrato

(W|WW) Whole (H|HH) Half (Q|QQ) Quarter (E|EE) 8th (S|SS) 16th (T|TT) 32nd (X|XX) 64th

Stave 1:
t: S S S S S SS SS S S S S S S S S S S S S S S S S
E|---------0-4-0-7----10-10-|-9----7-9----7-7-5----4-5-----------------|-------------|-
B|----5---------------------|-----------------------------7----9-7-5-7-|-9----9----9-|-
G|--------------------------|------------------------------------------|-9----9----9-|-
D|--------------------------|------------------------------------------|-9----9----9-|-
A|--------------------------|------------------------------------------|-7----7----7-|-
E|--------------------------|------------------------------------------|-------------|-

Stave 2:
t: S S S S S S S S S S S S E E E E W W W W W W W W
E|-----------------|---------------------------------|-
B|-7-7-7-7-5-5-5---|---------------------------------|-
G|-7-7-7-7-5-5-5-6-|-6-6-6-6-6-6-6-7-5-5-5-5-5-5-5-5-|-
D|-7-7-7-7-5-5-5-7-|-7-7-7-7-7-7-7-7-6-6-6-6-6-6-6-6-|-
A|-5-5-5-5-3-3-3-7-|-7-7-7-7-7-7-7-7-6-6-6-6-6-6-6-6-|-
E|---------------5-|-5-5-5-5-5-5-5-5-4-4-4-4-4-4-4-4-|-

http://www.guitartabcreator.com
Guitar Tab Creator is intended to store guitar tab created through the tool. It currently does not support in-line text editing. Any text you place in here will be lost. If you need to comment on your tab, please use the "Tab Notes" section located below.