Sound will begin in 5 seconds

2016-01-20 "chulina dijo"

Chords
01234567891011121314151617181920212223
E
B
G
D
A
E
B
0 1 2 3 4 5 6 7 8 9 10 11 12 13 14 15 16 17 18 19 20 21 22 23
Song Science #1: How Pros Use 6 Chords to Write Hit Songs
(/) Slide Up  (\) Slide Down  (h) Hammer On  (p) Pull Off  (b) Bend (r) Release (v) Vibrato

(W|WW) Whole (H|HH) Half (Q|QQ) Quarter (E|EE) 8th (S|SS) 16th (T|TT) 32nd (X|XX) 64th

Stave 1:
t: W W W W W W W W W
E|-2----2-3-2-2----2-2-3----3-
B|-3----3-3-3-3----3-3-5----5-
G|-2----2-2-2-4----4-4-5----5-
D|-0----0-0-0-4----4-4-5----5-
A|------------2----2-2-3----3-
E|----------------------------

Stave 2:
t: S S S SSS S S S SSS S S S S S S S S S S S S S S
E|-----------------------------------------------3-------------------------------------
B|-------7h8----p7----------7h8----p7------5-------5--------3--------------4-----------
G|---7------------------7--------------------5-------5-----------4--------------4------
D|-----7------------------7--------------------5-------5--------------4--------------4-
A|-5------------------5------------------3---------------------------------------------
E|-------------------------------------------------------------------------------------

Stave 3:
t: S S S S S S S S S S S S S S S S S S S S S S S S S S S S S S S S S S S S S S S S S S S S S S S S S
E|---------------------------------------------------------------------------------------------------
B|---3-----3-----3-----3-----3-----4-----4-----4-----4-----4-----5-----5-----5-----4-----4-----4-----
G|-----4-----4-----4-----4-----4-----4-----4-----4-----4-----4-----4-----4-----4-----4-----4-----4---
D|-4-----4-----4-----4-----4-----4-----4-----4-----4-----4-----4-----4-----4-----4-----4-----4-----4-
A|---------------------------------------------------------------------------------------------------
E|---------------------------------------------------------------------------------------------------

http://www.guitartabcreator.com
Guitar Tab Creator is intended to store guitar tab created through the tool. It currently does not support in-line text editing. Any text you place in here will be lost. If you need to comment on your tab, please use the "Tab Notes" section located below.