System Restart (beginning lead part)

Chords

01234567891011121314151617181920212223
E
B
G
D
A
E
B
0 1 2 3 4 5 6 7 8 9 10 11 12 13 14 15 16 17 18 19 20 21 22 23
(/) Slide Up  (\) Slide Down  (h) Hammer On  (p) Pull Off  (b) Bend (r) Release (v) Vibrato

Stave 1:

E|-----------------------------------------------------------------------------------
B|-8--8--8--10-10-10-11-11-10-10-10-10-10-10-10-10-6-6-6-8-8-8-10-10-8-8-8-8-8-8-8-8-
G|-8--8--8--8--8--8--8--8--8--8--8--8--8--8--8--8--7-7-7-7-7-7-7--7--7-7-7-7-7-7-7-7-
D|-10-10-10-10-10-10-10-10-10-10-10-10-10-10-10-10-8-8-8-8-8-8-8--8--8-8-8-8-8-8-8-8-
A|-----------------------------------------------------------------------------------
E|-----------------------------------------------------------------------------------

Stave 2:

E|-----------------------------------------------------------------------------------
B|-8--8--8--10-10-10-11-11-10-10-10-13-13-13-13-13-6-6-6-8-8-8-10-10-8-8-8-8-6-6-6-6-
G|-8--8--8--8--8--8--8--8--8--8--8--14-14-14-14-14-7-7-7-7-7-7-7--7--7-7-7-7-7-7-7-7-
D|-10-10-10-10-10-10-10-10-10-10-10-15-15-15-15-15-8-8-8-8-8-8-8--8--8-8-8-8-8-8-8-8-
A|-----------------------------------------------------------------------------------
E|-----------------------------------------------------------------------------------

							http://www.guitartabcreator.com
genre
Instruments
{"strings":[[[".",".",".",".",".",".",".",".",".",".",".",".",".",".",".",".",".",".",".",".",".",".",".",".",".",".",".",".",".",".",".","."],[8,8,8,10,10,10,11,11,10,10,10,10,10,10,10,10,6,6,6,8,8,8,10,10,8,8,8,8,8,8,8,8],[8,8,8,8,8,8,8,8,8,8,8,8,8,8,8,8,7,7,7,7,7,7,7,7,7,7,7,7,7,7,7,7],[10,10,10,10,10,10,10,10,10,10,10,10,10,10,10,10,8,8,8,8,8,8,8,8,8,8,8,8,8,8,8,8],[".",".",".",".",".",".",".",".",".",".",".",".",".",".",".",".",".",".",".",".",".",".",".",".",".",".",".",".",".",".",".","."],[".",".",".",".",".",".",".",".",".",".",".",".",".",".",".",".",".",".",".",".",".",".",".",".",".",".",".",".",".",".",".","."]],[[".",".",".",".",".",".",".",".",".",".",".",".",".",".",".",".",".",".",".",".",".",".",".",".",".",".",".",".",".",".",".","."],[8,8,8,10,10,10,11,11,10,10,10,13,13,13,13,13,6,6,6,8,8,8,10,10,8,8,8,8,6,6,6,6],[8,8,8,8,8,8,8,8,8,8,8,14,14,14,14,14,7,7,7,7,7,7,7,7,7,7,7,7,7,7,7,7],[10,10,10,10,10,10,10,10,10,10,10,15,15,15,15,15,8,8,8,8,8,8,8,8,8,8,8,8,8,8,8,8],[".",".",".",".",".",".",".",".",".",".",".",".",".",".",".",".",".",".",".",".",".",".",".",".",".",".",".",".",".",".",".","."],[".",".",".",".",".",".",".",".",".",".",".",".",".",".",".",".",".",".",".",".",".",".",".",".",".",".",".",".",".",".",".","."]]],"numberofstrings":6,"notes":["E","B","G","D","A","E","B"],"capo":0,"stringnotes":["E4","B3","G3","D3","A2","E2"],"comments":["Stave 1:","Stave 2:"],"timing":[["W","W","W","W","W","W","W","W","W","W","W","W","W","W","W","W","W","W","W","W","W","W","W","W","W","W","W","W","W","W","W","W"],["W","W","W","W","W","W","W","W","W","W","W","W","W","W","W","W","W","W","W","W","W","W","W","W","W","W","W","W","W","W","W","W"]],"timingvisible":false,"tabcounter":31,"stave":1,"totalstaves":2,"instrument":"6guitar","selectedtuning":"6_standard","version":"13"}

Member for

2 weeks 6 days
Submitted by celeryfang on Tue, 2020-09-15 21:15