Sound will begin in 5 seconds

templetotemple

Chords
01234567891011121314151617181920212223
E
B
G
D
A
E
B
0 1 2 3 4 5 6 7 8 9 10 11 12 13 14 15 16 17 18 19 20 21 22 23
Song Science #1: How Pros Use 6 Chords to Write Hit Songs
(/) Slide Up  (\) Slide Down  (h) Hammer On  (p) Pull Off  (b) Bend (r) Release (v) Vibrato

Stave 1:

E|---------------------------------------------
B|---------------------------------------------
G|---------7----------------------------7------
D|--9------9---9------------------------10-----
A|--10-----10--10-----------------------10-----
D|---------------------------------------------

Stave 2:

E|----------------------------------
B|----------------------------------
G|--7------------------------7------
D|--9------------------------10-----
A|--10-----------------------10-----
D|----------------------------------

Stave 3:

E|---------------------------------
B|---------------------------------
G|--7-----------------------7------
D|--9-----------------------10-----
A|--8-----------------------8------
D|---------------------------------

Stave 4:

E|------------------------------
B|------------------------------
G|--7---------------------------
D|--9-----------------------10--
A|--8-----------------------7---
D|------------------------------

Stave 5:

E|------------------------------
B|------------------------------
G|------------------------------
D|--5-----------------------10--
A|------------------------------
D|--5-----------------------10--

Stave 6:

E|-------------------------------------
B|-------------------------------------
G|-------------------------------------
D|-------------------------------------
A|--5--------6--------7---------6------
D|--5--------5--------10--------10-----

Stave 7:

E|---------------7-----6-----
B|---------------8-----8-----
G|--7------7-----7-----6-----
D|--9------9-----9-----8-----
A|--10-----8-----7-----6-----
D|---------------------------

Stave 8:

E|----------------------------
B|--3-----4-------------------
G|--4-----4-----9------8------
D|----------------------------
A|--5-----5-----10-----10-----
D|--5-----5-----10-----10-----

Stave 9:

E|-------------------------
B|-------------------------
G|--4-----------9----------
D|--2------------------12--
A|--2-----------10-----10--
D|--2-----------10-----10--

Stave 10:

E|---------------7-----6--7--
B|---------------8-----8--8--
G|--7------7-----7-----6--6--
D|--9------9-----9-----8--8--
A|--10-----8-----7-----6--6--
D|---------------------------

http://www.guitartabcreator.com
Guitar Tab Creator is intended to store guitar tab created through the tool. It currently does not support in-line text editing. Any text you place in here will be lost. If you need to comment on your tab, please use the "Tab Notes" section located below.