Sound will begin in 5 seconds

helping hands

Chords
01234567891011121314151617181920212223
E
B
G
D
A
E
B
0 1 2 3 4 5 6 7 8 9 10 11 12 13 14 15 16 17 18 19 20 21 22 23
Song Science #1: How Pros Use 6 Chords to Write Hit Songs
(/) Slide Up  (\) Slide Down  (h) Hammer On  (p) Pull Off  (b) Bend (r) Release (v) Vibrato

Stave 1:

E|-----------------------------------------------8----------8--9-------------5-----------
B|------10----------------------10--10--------------10------------10--8--10--6-----------
G|----------10----------10--12------10------------------10-------------------7-----------
D|--10----------10--11--------------12---------------------------------------------------
A|---------------------------------------------------------------------------------------
D|---------------------------------------------------------------------------------------

Stave 2:

E|--------------------------------------------------------------------------------------
B|-----10--------10-----10--------------------10--------10-----10-----------------------
G|-----10--------10-----10--------------------10--------10-----10-----------------------
D|-----10--------11-----10--------------------10--------11-----10-----------------------
A|--------------------------------------------------------------------------------------
D|--------------------------------------------------------------------------------------

Stave 3:

E|---------------------------------------------------------------------------------------
B|--10--------10-----10--------10-----------------------10--------10-----10--------------
G|--10--------10-----10--------10-----------------------10--------10-----10--------------
D|--12--------11-----10--------9------------------------10--------11-----10--------------
A|---------------------------------------------------------------------------------------
D|---------------------------------------------------------------------------------------

Stave 4:

E|-----------------------------------------------8--------------9--10--5-----------------
B|--------------------------------------------------10------10---------6-----------------
G|------10----------------------10--10------------------10-------------7-----------------
D|----------10----------10--12------10---------------------------------------------------
A|--10----------10--11--------------12---------------------------------------------------
D|---------------------------------------------------------------------------------------

Stave 5:

E|------------------------------------------
B|------------------------------------------
G|------------------------------------------
D|--7-----10-----11-----12--------12-----8--
A|--8-----8------7------12--------15-----8--
D|----------------------12--------12-----8--

Stave 6:

E|------------------------------------------
B|------------------------------------------
G|------------------------------------------
D|--7-----10-----11-----12------------------
A|--8-----8------7------12-----------11-----
D|----------------------12-----------8------

Stave 7:

E|------------------------------------------------
B|------------------------------------------------
G|---------------------------------------------2--
D|--7-----10-----11-----12--------12-----8--------
A|--8-----8------7------12--------15-----8-----3--
D|----------------------12--------12-----8-----3--

Stave 8:

E|-------------------------------------------------------------------------------
B|-------------------------------------------------------------------------------
G|--------2-----------2--------2--------------------2-----------2--2--------1-2--
D|-------------------------------------------------------------------------------
A|-----3-----3-----4--------3-----3--------------3-----3-----4-----3--------2-3--
D|--3-----------3--------3-----------3--------3-----------3--------3--------2/3--

Stave 9:

E|--------------------------------------------------------------------
B|--------------------------------------------------------------------
G|-----------------------------------------2--------2--------2-----2--
D|--3--------3-----3--------3--------5--------------------------------
A|--5--------4-----3--------2--------2-----2--------3--------4-----3--
D|--------------------------------------------------3--------3-----3--

http://www.guitartabcreator.com
Guitar Tab Creator is intended to store guitar tab created through the tool. It currently does not support in-line text editing. Any text you place in here will be lost. If you need to comment on your tab, please use the "Tab Notes" section located below.