Sound will begin in 5 seconds

Sam and Henry Bond

01234567891011121314151617181920212223
E
B
G
D
A
E
B
0 1 2 3 4 5 6 7 8 9 10 11 12 13 14 15 16 17 18 19 20 21 22 23
Song Science #1: How Pros Use 6 Chords to Write Hit Songs
(/) Slide Up  (\) Slide Down  (h) Hammer On  (p) Pull Off  (b) Bend (r) Release (v) Vibrato

Stave 1:

G|--0--0-----0--0--------------
D|-----------------------------
A|--------3--------3--3--3--3--
E|-----------------------------

Stave 2:

G|-----------------------------
D|-----------------------------
A|-----3-----4-----5-----4-----
E|--------1-----1-----1-----1--

Stave 3:

G|--------------------------
D|--------2--1--0-----------
A|--------------------4-----
E|--1--4-----------1-----1--

Stave 4:

G|--------------------------
D|--------------0-----------
A|-----3--4-----------4-----
E|--1--------1-----1-----1--

Stave 5:

G|--------------------------------------------------------------------------
D|--------------------------------------------------------------------------
A|--------------------------------------------------------------------------
E|--1--1--1--3--1--3--4--4--4--3--1--3--1--1--1--3--1--3--4--4--4--3--1--3--

Stave 6:

G|--------------------------------------------------
D|--------------------------------------------------
A|--------------------------------------------------
E|--1--2--2--2--2--1--1--1--1--4--4--4--4--2--2--2--

Stave 7:

G|-----------------------------------------------------------------
D|--------------------------------------------------2--1-----------
A|--------------------------------------------------------3--1--3--
E|--1--3--3--3--3--1--1--1--1--4--4--4--4--3--2--1-----------------

Stave 8:

G|--------------------------------4--3-----1--9--8-----
D|--------2--1--------5--4-----1--------3--------------
A|-----------------3--------3--------------------------
E|--1--4--------4-----------------------------------1--

http://www.guitartabcreator.com
Guitar Tab Creator is intended to store guitar tab created through the tool. It currently does not support in-line text editing. Any text you place in here will be lost. If you need to comment on your tab, please use the "Tab Notes" section located below.