Sound will begin in 5 seconds

Desert Song

01234567891011121314151617181920212223
E
B
G
D
A
E
B
0 1 2 3 4 5 6 7 8 9 10 11 12 13 14 15 16 17 18 19 20 21 22 23
Song Science #1: How Pros Use 6 Chords to Write Hit Songs
(/) Slide Up  (\) Slide Down  (h) Hammer On  (p) Pull Off  (b) Bend (r) Release (v) Vibrato

Stave 1:

G|---------------------------
D|---------------------------
A|--2--------5--------5h7p5--
D|-----4--7-----5--5---------

Stave 2:

G|-----------------------
D|-----------------------
A|--2--------5--------5--
D|-----4--7-----5--5-----

Stave 3:

G|----------------------------------------------
D|----------------------------------------------
A|--5/12\10--10h12p10p9--5h7p5p4-------2--------
D|--------------------------------5/7-----5--7--

Stave 4:

G|---------------------------
D|---------------------------
A|--2-----------------5h7p5--
D|-----0--4--7--5--5---------

Stave 5:

G|---------------------------
D|---------------------------
A|--2--2--2--5--------5h7p5--
D|--------------5--5---------

Stave 6:

G|--------------------------------
D|--------------------------------
A|--5-----------------------------
D|-----5h7p5--7h9p7--5h7p5--0-----

Stave 7:

G|-----------------------------
D|-----9--7--5-----------------
A|--5-----------5--------------
D|-----------------9--7--5--0--

http://www.guitartabcreator.com
Guitar Tab Creator is intended to store guitar tab created through the tool. It currently does not support in-line text editing. Any text you place in here will be lost. If you need to comment on your tab, please use the "Tab Notes" section located below.