Sound will begin in 5 seconds

Maggiore Fantasia no. 3, op. 10 - Fernado Sor

Chords
01234567891011121314151617181920212223
E
B
G
D
A
E
B
0 1 2 3 4 5 6 7 8 9 10 11 12 13 14 15 16 17 18 19 20 21 22 23
Song Science #1: How Pros Use 6 Chords to Write Hit Songs
(/) Slide Up  (\) Slide Down  (h) Hammer On  (p) Pull Off  (b) Bend (r) Release (v) Vibrato

Stave 1:

E|-----|--1-----1--5-----5-----3-----6-----6--|--5-----5--6-----6--8------8--13------13--|--10------10--6-----6-----3-----8-----8--
B|--1--|-----1--------6-----5-----5-----8-----|-----6--------8--------10---------14------|------11---------8-----5-----5-----8-----
G|-----|--2-----------------------------------|------------------------------------------|-----------------------------------------
D|-----|--------------------------------------|------------------------------------------|-----------------------------------------
A|-----|--------------------------------------|------------------------------------------|-----------------------------------------
F|-----|--0-----------------------------------|------------------------------------------|-----------------------------------------

Stave 2:

E|--5-----5--3-----3--1-----1-----1--5-----5-----3-----6-----6--5-----5--7-----7--8------8--5-----5--
B|-----6--------1--------1-----1--------6-----5-----5-----8--------6--------8--------10--------6-----
G|--------------------2-----2------------------------------------------------------------------------
D|---------------------------------------------------------------------------------------------------
A|---------------------------------------------------------------------------------------------------
F|---------------------------------------------------------------------------------------------------

Stave 3:

E|--3-----3--0-----0--3--2--1--1--------|--
B|-----5--------1-----------------3--0--|--
G|--------------------------------------|--
D|--------------------------------------|--
A|--------------------------------------|--
F|--------------------------------------|--

http://www.guitartabcreator.com
Guitar Tab Creator is intended to store guitar tab created through the tool. It currently does not support in-line text editing. Any text you place in here will be lost. If you need to comment on your tab, please use the "Tab Notes" section located below.