Forest

Chords

01234567891011121314151617181920212223
E
B
G
D
A
E
B
0 1 2 3 4 5 6 7 8 9 10 11 12 13 14 15 16 17 18 19 20 21 22 23
(/) Slide Up  (\) Slide Down  (h) Hammer On  (p) Pull Off  (b) Bend (r) Release (v) Vibrato

Intro(3x)

E|--------3-----------3--1-----0--
B|-----0-----0-----0--------0-----
G|--------------0-----------------
D|--2-----------------------------
A|--------------------------------
E|--------------------------------

Stave 2:

E|--------3-----------4--3-----2--0--5--
B|-----0-----0-----0--------1-----------
G|--------------0-----------------------
D|--2-----------------------------------
A|--------------------------------------
E|--------------------------------------

Chorus (?x)

E|--------3--1--1-----------
B|-----0-----2--2-----------
G|-----------3--3-----------
D|--2--------------2--2--2--
A|-----------------2--2--2--
E|--------------------------

							http://www.guitartabcreator.com
Instruments
{"strings":[[[".",".",3,".",".",".",3,1,".",0],[".",0,".",0,".",0,".",".",0,"."],[".",".",".",".",0,".",".",".",".","."],[2,".",".",".",".",".",".",".",".","."],[".",".",".",".",".",".",".",".",".","."],[".",".",".",".",".",".",".",".",".","."]],[[".",".",3,".",".",".",4,3,".",2,0,5],[".",0,".",0,".",0,".",".",1,".",".","."],[".",".",".",".",0,".",".",".",".",".",".","."],[2,".",".",".",".",".",".",".",".",".",".","."],[".",".",".",".",".",".",".",".",".",".",".","."],[".",".",".",".",".",".",".",".",".",".",".","."]],[[".",".",3,1,1,".",".","."],[".",0,".",2,2,".",".","."],[".",".",".",3,3,".",".","."],[2,".",".",".",".",2,2,2],[".",".",".",".",".",2,2,2],[".",".",".",".",".",".",".","."]]],"numberofstrings":6,"notes":["E","B","G","D","A","E","B"],"capo":0,"stringnotes":["E4","B3","G3","D3","A2","E2"],"comments":["Intro(3x)","Stave 2:","Chorus (?x)","Repeat"],"timing":[[null,null,null,null,null,null,null,null,null,null],["W","W","W","W","W","W","W","W","W","W","W","W"],["W","W","W","W","W","W","W","W"],["W","W","W","W","W","W"]],"timingvisible":false,"tabcounter":7,"stave":2,"totalstaves":3,"instrument":"6guitar","selectedtuning":"6_standard","version":"13"}

Member for

1 week 4 days
Submitted by Caveman on Mon, 2020-06-29 16:39