Sound will begin in 5 seconds

Her

Chords
01234567891011121314151617181920212223
E
B
G
D
A
E
B
0 1 2 3 4 5 6 7 8 9 10 11 12 13 14 15 16 17 18 19 20 21 22 23
Song Science #1: How Pros Use 6 Chords to Write Hit Songs
(/) Slide Up  (\) Slide Down  (h) Hammer On  (p) Pull Off  (b) Bend (r) Release (v) Vibrato

Stave 1:

E|-----5--2--3------5--3--2-----5--2--3-----8--14--15--
B|-----------------------------------------------------
G|--4-----------11-----------6-----------7-------------
D|-----------------------------------------------------
A|-----------------------------------------------------
E|--3-----------10-----------5-----------7-------------

Stave 2:

E|--------------------------------------------------
B|--------------------------------------------------
G|--------------------------------------------------
D|--------------------------------------------------
A|--------------5-----------------------------------
E|--3-----------------------5-----------7-----------

Stave 3:

E|--7--7--7--7--14--14--14--14--9--9--9--9--10--10--10--10--
B|----------------------------------------------------------
G|----------------------------------------------------------
D|----------------------------------------------------------
A|----------------------------------------------------------
E|----------------------------------------------------------

Stave 4:

E|--5--2--3--2--5--2--3--2--5--2--3--2--5--2--3--2--------------------------------------------------
B|--------------------------------------------------5--2--3--2--5--2--3--2--5--2--3--2--7--2--3--2--
G|--------------------------------------------------------------------------------------------------
D|--------------------------------------------------------------------------------------------------
A|--------------------------------------------------------------------------------------------------
E|--------------------------------------------------------------------------------------------------

Stave 5:

E|---------------
B|---------------
G|---------------
D|--5--12--7--9--
A|---------------
E|--3--10--5--7--

Stave 6:

E|--14--14--14--14--14--14--14--14--9--9--10--10--10--10--9--9--7--7--7--7--9--9--10--10--
B|----------------------------------------------------------------------------------------
G|----------------------------------------------------------------------------------------
D|----------------------------------------------------------------------------------------
A|----------------------------------------------------------------------------------------
E|----------------------------------------------------------------------------------------

http://www.guitartabcreator.com
Guitar Tab Creator is intended to store guitar tab created through the tool. It currently does not support in-line text editing. Any text you place in here will be lost. If you need to comment on your tab, please use the "Tab Notes" section located below.