Sound will begin in 5 seconds

Don't Forget

Chords
01234567891011121314151617181920212223
E
B
G
D
A
E
B
0 1 2 3 4 5 6 7 8 9 10 11 12 13 14 15 16 17 18 19 20 21 22 23
Song Science #1: How Pros Use 6 Chords to Write Hit Songs
(/) Slide Up  (\) Slide Down  (h) Hammer On  (p) Pull Off  (b) Bend (r) Release (v) Vibrato

Stave 1:

E|---------------------------
B|---------------------------
G|--7--6--4-----7--6--4--11--
D|---------------------------
A|---------------------------
E|--7--5--3-----7--5--3--10--

Stave 2:

E|------------------------------------------------------------------------------------------------------
B|------------------------------------------------------------------------------------------------------
G|-----9-----9-----11-----11-----9-----9-----11-----11-----6-----6-----7-----7-----6-----6-----7-----7--
D|--0-----0-----0------0------0-----0-----0------0------0-----0-----0-----0-----0-----0-----0-----0-----
A|------------------------------------------------------------------------------------------------------
E|------------------------------------------------------------------------------------------------------

Stave 3:

E|--------------------------------------------------------------------------------------------------------
B|--------------------------------------------------------------------------------------------------------
G|-----9-----9-----11-----11-----9-----9-----11-----11-----6-----6-----7-----7-----6-----6-----14-----14--
D|--0-----0-----0------0------0-----0-----0------0------0-----0-----0-----0-----0-----0-----0------0------
A|--------------------------------------------------------------------------------------------------------
E|--------------------------------------------------------------------------------------------------------

Stave 4:

E|---------------
B|---------------
G|--7--6--9--11--
D|---------------
A|---------------
E|---------------

Stave 5:

E|---------------------------
B|---------------------------
G|--7--6--4--4--7--6--4--11--
D|---------------------------
A|--9--7--5--5--9--7--5--12--
E|--7--5--3--3--7--5--3--10--

Stave 6:

E|------------------------------------------------------------------------------------------------------
B|------------------------------------------------------------------------------------------------------
G|--7--7--7--7--6--6--6--6--4--4--4--4--4--4--4--4--7--7--7--7--6--6--6--6--4--4--4--4--11--11--11--11--
D|------------------------------------------------------------------------------------------------------
A|------------------------------------------------------------------------------------------------------
E|------------------------------------------------------------------------------------------------------

http://www.guitartabcreator.com
Guitar Tab Creator is intended to store guitar tab created through the tool. It currently does not support in-line text editing. Any text you place in here will be lost. If you need to comment on your tab, please use the "Tab Notes" section located below.