Sound will begin in 5 seconds

Honey and Clover waltz duet (lead guitar)

01234567891011121314151617181920212223
E
B
G
D
A
E
B
0 1 2 3 4 5 6 7 8 9 10 11 12 13 14 15 16 17 18 19 20 21 22 23
Song Science #1: How Pros Use 6 Chords to Write Hit Songs
(/) Slide Up  (\) Slide Down  (h) Hammer On  (p) Pull Off  (b) Bend (r) Release (v) Vibrato

Stave 1:

E|-----------------------------------------------------------
B|-----------------------------------------------------------
G|-------4-6\8-6-6-8\9-8-6-6\8-2\4-4-6-6\8-6-4-6-------------
D|-2\4-4-----------------------------------------6\8-8-9-8-9-
A|-----------------------------------------------------------
E|-----------------------------------------------------------

Stave 2:

E|-------------------------------------------------------------
B|-------------------------------------------------------------
G|-------4-6\8-6-6-8\9-8-6-6\8-2\4-4-6-6\8-6-4-6---------------
D|-2\4-4-----------------------------------------6\8-8-9-8-8/6-
A|-------------------------------------------------------------
E|-------------------------------------------------------------

Stave 3:

E|---------------------------------------
B|-6\9-7---------------------------------
G|-------8-2\4-3-4-------4-6-8-4-3-4-----
D|-----------------4\6-6-------------4\6-
A|---------------------------------------
E|---------------------------------------

Stave 4:

E|---------------------------------------------------------
B|-6\9-7---------------------------------------------------
G|-------8-2\4-4-4\6-4-6\8-6-6-4-4-4\6-4-6-8-8\9-8-4-6-6-4-
D|---------------------------------------------------------
A|---------------------------------------------------------
E|---------------------------------------------------------

Stave 5:

E|-----------------------------------------
B|-----4-5\7-4-----------------------------
G|-4-6---------4/3-3-4-3-4p3-3-3-4p3-------
D|-----------------------------------4-4\6-
A|-----------------------------------------
E|-----------------------------------------

Stave 6:

E|-----------------------------------
B|-----4-5\7-2\4---------------4-2---
G|-4-6-----------4/3-3-4-3-4-3-----4-
D|-----------------------------------
A|-----------------------------------
E|-----------------------------------

Stave 7:

E|---------------------------------------------
B|-------4-5\7-2\4-----------------------------
G|-4-4\6-----------4/3-3-4-3-4p3-3-3-4p3-------
D|---------------------------------------4-4\6-
A|---------------------------------------------
E|---------------------------------------------

Stave 8:

E|------------------------------
B|-----4-5\7-7-5-7\9-9\11-11-12-
G|-4\6--------------------------
D|------------------------------
A|------------------------------
E|------------------------------

http://www.guitartabcreator.com
Guitar Tab Creator is intended to store guitar tab created through the tool. It currently does not support in-line text editing. Any text you place in here will be lost. If you need to comment on your tab, please use the "Tab Notes" section located below.