Sound will begin in 5 seconds

Krupke

Chords
01234567891011121314151617181920212223
E
B
G
D
A
E
B
0 1 2 3 4 5 6 7 8 9 10 11 12 13 14 15 16 17 18 19 20 21 22 23
Song Science #1: How Pros Use 6 Chords to Write Hit Songs
(/) Slide Up  (\) Slide Down  (h) Hammer On  (p) Pull Off  (b) Bend (r) Release (v) Vibrato

Stave 1:

E|--3-----3-----3-----3-----3-----3-----3-----3-----3-----3-----3-----3-----3-----0-----0-----0-----
B|--5-----5-----5-----5-----4-----4-----5-----5-----5-----5-----4-----4-----5-----1-----1-----1-----
G|--5-----5-----5-----5-----5-----5-----5-----5-----5-----5-----5-----5-----5-----0-----0-----0-----
D|--------------------------------------------------------------------------------------------------
A|--------------------------------------------------------------------------------------------------
E|--------------------------------------------------------------------------------------------------

Stave 2:

E|--0-----0-----0-----0-----1-----1-----1-----1-----1-----1-----1-----1-----2-----2--------------
B|--1-----1-----1-----1-----2-----2-----2-----2-----2-----2-----2-----2-----2-----2--------------
G|--0-----0-----0-----0-----1-----1-----1-----1-----1-----1-----1-----1-----1-----1--------------
D|-----------------------------------------------------------------------------------------------
A|-----------------------------------------------------------------------------------------------
E|-----------------------------------------------------------------------------------------------

Stave 3:

E|--2-----2-----2-----2-----2-----2-----4-----8------11-----------11-----------------------------
B|--2-----2-----2-----2-----4-----4-----4-----10------------------_-----------------------------
G|--1-----1-----1-----1-----5-----5-----5-----8------11-----------11-----------------------------
D|--------------------3-------------------------------------------_-----------------------------
A|---------------------------------------------------12-----------12-----------------------------
E|----------------------------------------------------------------_-----------------------------

Stave 4:

E|--1-----1-----------------4-----5-----7-----5--------2-----3-----5-----3-----3-----3-----3-----------
B|--3-----3--5--------------5-----6-----8-----6--------4-----5-----5-----5-----4-----4-----4-----------
G|--4-----4--5--------------5-----5-----5-----5--------5-----5-----5-----5-----5-----5-----5-----------
D|-----------------------------------------------------------------------------------------------------
A|-----------------------------------------------------------------------------------------------------
E|-----------------------------------------------------------------------------------------------------

Stave 5:

E|-------------------------------------------------------------------------------------------------------
B|--5-----------1-1--1-----------------------------------------------------------------------------------
G|--5-----------3-3--3-----------------------------------------------------------------------------------
D|--------------2-2--2-----------------------------------------------------------------------------------
A|-------------------------------------------------------------------------------------------------------
E|-------------------------------------------------------------------------------------------------------

http://www.guitartabcreator.com
Guitar Tab Creator is intended to store guitar tab created through the tool. It currently does not support in-line text editing. Any text you place in here will be lost. If you need to comment on your tab, please use the "Tab Notes" section located below.