12 bar 2

01234567891011121314151617181920212223
E
B
G
D
A
E
B
0 1 2 3 4 5 6 7 8 9 10 11 12 13 14 15 16 17 18 19 20 21 22 23
(/) Slide Up  (\) Slide Down  (h) Hammer On  (p) Pull Off  (b) Bend (r) Release (v) Vibrato

Stave 1:

E|--------0--4--4--4--4--4--------0--3--3--3--3--3--------0--4--0--------0-----------
B|--0--2--------------------0--2--------------------0--2-----------2--0-----0--2--3--
G|--------------------------------------------------------------------------------4--
D|-----------------------------------------------------------------------------------
A|-----------------------------------------------------------------------------------
E|-----------------------------------------------------------------------------------

Stave 2:

E|--------------------------|--------------------------|--
B|--------------------------|--------------------------|--
G|--------------------------|--------------------------|--
D|--2--2--2--2--2--2--4--2--|--2--2--2--2--2--2--4--2--|--
A|--0--0--3--4--0--0--0--0--|--0--0--3--4--0--0--0--0--|--
E|--------------------------|--------------------------|--

Stave 3:

E|--------------------------|--------------------------|--
B|--------------------------|--------------------------|--
G|--------------------------|--------------------------|--
D|--------------------------|--------------------------|--
A|--2--2--2--2--2--2--4--2--|--2--2--2--2--2--2--4--2--|--
E|--0--0--3--4--0--0--0--0--|--0--0--3--4--0--0--0--0--|--

Stave 4:

E|--------------------------------------------------------------------------
B|--------------------------------------------------------------------------
G|--------------------------------------------------------------------------
D|--------------------------------4--4--2--2--4--2-----------------------1--
A|--2--2--------------------0--0--------------------------0--1--2--3--4-----
E|--------4--4--2--2--4--4--------------------------0--4--------------------

Stave 5:

E|--------------------------------------------------------
B|--------------------------------------------------------
G|--------------------------------------------------------
D|--2--2--0--0--------------0--0--------------------------
A|--------------4--4--2--2--------4--4--2--2--------1--2--
E|--------------------------------------------0--4--------

							http://www.guitartabcreator.com
Chords

genre
Instruments
{"title":"","strings":[[[".",".",0,4,4,4,4,4,".",".",0,3,3,3,3,3,".",".",0,4,0,".",".",0,".",".","."],[0,2,".",".",".",".",".",".",0,2,".",".",".",".",".",".",0,2,".",".",".",2,0,".",0,2,3],[".",".",".",".",".",".",".",".",".",".",".",".",".",".",".",".",".",".",".",".",".",".",".",".",".",".",4],[".",".",".",".",".",".",".",".",".",".",".",".",".",".",".",".",".",".",".",".",".",".",".",".",".",".","."],[".",".",".",".",".",".",".",".",".",".",".",".",".",".",".",".",".",".",".",".",".",".",".",".",".",".","."],[".",".",".",".",".",".",".",".",".",".",".",".",".",".",".",".",".",".",".",".",".",".",".",".",".",".","."]],[[".",".",".",".",".",".",".",".","|",".",".",".",".",".",".",".",".","|"],[".",".",".",".",".",".",".",".","|",".",".",".",".",".",".",".",".","|"],[".",".",".",".",".",".",".",".","|",".",".",".",".",".",".",".",".","|"],[2,2,2,2,2,2,4,2,"|",2,2,2,2,2,2,4,2,"|"],[0,0,3,4,0,0,0,0,"|",0,0,3,4,0,0,0,0,"|"],[".",".",".",".",".",".",".",".","|",".",".",".",".",".",".",".",".","|"]],[[".",".",".",".",".",".",".",".","|",".",".",".",".",".",".",".",".","|"],[".",".",".",".",".",".",".",".","|",".",".",".",".",".",".",".",".","|"],[".",".",".",".",".",".",".",".","|",".",".",".",".",".",".",".",".","|"],[".",".",".",".",".",".",".",".","|",".",".",".",".",".",".",".",".","|"],[2,2,2,2,2,2,4,2,"|",2,2,2,2,2,2,4,2,"|"],[0,0,3,4,0,0,0,0,"|",0,0,3,4,0,0,0,0,"|"]],[[".",".",".",".",".",".",".",".",".",".",".",".",".",".",".",".",".",".",".",".",".",".",".","."],[".",".",".",".",".",".",".",".",".",".",".",".",".",".",".",".",".",".",".",".",".",".",".","."],[".",".",".",".",".",".",".",".",".",".",".",".",".",".",".",".",".",".",".",".",".",".",".","."],[".",".",".",".",".",".",".",".",".",".",4,4,2,2,4,2,".",".",".",".",".",".",".",1],[2,2,".",".",".",".",".",".",0,0,".",".",".",".",".",".",".",".",0,1,2,3,4,"."],[".",".",4,4,2,2,4,4,".",".",".",".",".",".",".",".",0,4,".",".",".",".",".","."]],[[".",".",".",".",".",".",".",".",".",".",".",".",".",".",".",".",".","."],[".",".",".",".",".",".",".",".",".",".",".",".",".",".",".",".",".","."],[".",".",".",".",".",".",".",".",".",".",".",".",".",".",".",".",".","."],[2,2,0,0,".",".",".",".",0,0,".",".",".",".",".",".",".","."],[".",".",".",".",4,4,2,2,".",".",4,4,2,2,".",".",1,2],[".",".",".",".",".",".",".",".",".",".",".",".",".",".",0,4,".","."]]],"numberofstrings":6,"notes":["E","B","G","D","A","E","B"],"capo":0,"stringnotes":["E4","B3","G3","D3","A2","E2"],"comments":["Stave 1:","Stave 2:","Stave 3:","Stave 4:","Stave 5:"],"timing":[["W","W","W","W","W","W","W","W","W","W","W","W","W","W","W","W","W","W","W","W","W","W","W","W","W","W","W"],["W","W","W","W","W","W","W","W",null,"W","W","W","W","W","W","W","W"],["W","W","W","W","W","W","W","W",null,"W","W","W","W","W","W","W","W"],["W","W","W","W","W","W","W","W","W","W","W","W","W","W","W","W","W","W","W","W","W","W","W","W"],["W","W","W","W","W","W","W","W","W","W","W","W","W","W","W","W","W","W"]],"timingvisible":false,"tabcounter":18,"stave":4,"totalstaves":5,"instrument":"6guitar","selectedtuning":"6_standard","version":"13"}

Member for

9 months 1 week
Submitted by catman13 on Tue, 2020-04-14 09:15