12 Bar

01234567891011121314151617181920212223
E
B
G
D
A
E
B
0 1 2 3 4 5 6 7 8 9 10 11 12 13 14 15 16 17 18 19 20 21 22 23
(/) Slide Up  (\) Slide Down  (h) Hammer On  (p) Pull Off  (b) Bend (r) Release (v) Vibrato

Stave 1:

E|--------------------------------------------------------------
B|--------------------------------------------------------------
G|--------------------------------------------------------------
D|--------------------------------------------------------------
A|-----2--4--5--4-----2--4--5--4-----2--4--5--4-----2--4--5--4--
E|--0--------------0--------------0--------------0--------------

Stave 2:

E|--------------------------------
B|--------------------------------
G|--------------------------------
D|-----2--4--5--4-----2--4--5--4--
A|--0--------------0--------------
E|--------------------------------

Stave 3:

E|--------------------------------
B|--------------------------------
G|--------------------------------
D|--------------------------------
A|-----2--4--5--4-----2--4--5--4--
E|--0--------------0--------------

Stave 4:

E|-----------------------------------------------------------------
B|--4--2--1-----2--1-----------------------------------------------
G|-----------4--------4--2-----------------------------------------
D|-----------------------------------------------1-----------------
A|--------------------------------0--1--2--3--4--------2--4--5--4--
E|--------------------------0--4--------------------0--------------

							http://www.guitartabcreator.com
Chords

Tab Notes

After stave 4 go back to stave 1

genre
Instruments
{"title":"12 Bar ","strings":[[[".",".",".",".",".",".",".",".",".",".",".",".",".",".",".",".",".",".",".","."],[".",".",".",".",".",".",".",".",".",".",".",".",".",".",".",".",".",".",".","."],[".",".",".",".",".",".",".",".",".",".",".",".",".",".",".",".",".",".",".","."],[".",".",".",".",".",".",".",".",".",".",".",".",".",".",".",".",".",".",".","."],[".",2,4,5,4,".",2,4,5,4,".",2,4,5,4,".",2,4,5,4],[0,".",".",".",".",0,".",".",".",".",0,".",".",".",".",0,".",".",".","."]],[[".",".",".",".",".",".",".",".",".","."],[".",".",".",".",".",".",".",".",".","."],[".",".",".",".",".",".",".",".",".","."],[".",2,4,5,4,".",2,4,5,4],[0,".",".",".",".",0,".",".",".","."],[".",".",".",".",".",".",".",".",".","."]],[[".",".",".",".",".",".",".",".",".","."],[".",".",".",".",".",".",".",".",".","."],[".",".",".",".",".",".",".",".",".","."],[".",".",".",".",".",".",".",".",".","."],[".",2,4,5,4,".",2,4,5,4],[0,".",".",".",".",0,".",".",".","."]],[[".",".",".",".",".",".",".",".",".",".",".",".",".",".",".",".",".",".",".",".","."],[4,2,1,".",2,1,".",".",".",".",".",".",".",".",".",".",".",".",".",".","."],[".",".",".",4,".",".",4,2,".",".",".",".",".",".",".",".",".",".",".",".","."],[".",".",".",".",".",".",".",".",".",".",".",".",".",".",".",1,".",".",".",".","."],[".",".",".",".",".",".",".",".",".",".",0,1,2,3,4,".",".",2,4,5,4],[".",".",".",".",".",".",".",".",0,4,".",".",".",".",".",".",0,".",".",".","."]]],"numberofstrings":6,"notes":["E","B","G","D","A","E","B"],"capo":0,"stringnotes":["E4","B3","G3","D3","A2","E2"],"comments":["Stave 1:","Stave 2:","Stave 3:","Stave 4:"],"timing":[["W","W","W","W","W","W","W","W","W","W","W","W","W","W","W","W","W","W","W","W"],["W","W","W","W","W","W","W","W","W","W"],["W","W","W","W","W","W","W","W","W","W"],["W","W","W","W","W","W","W","W","W","W","W","W","W","W","W","W","W","W","W","W","W"]],"timingvisible":false,"tabcounter":21,"stave":3,"totalstaves":4,"instrument":"6guitar","selectedtuning":"6_standard","version":"13"}

Member for

9 months 1 week
Submitted by catman13 on Mon, 2020-04-13 02:41