Sad song

Chords

01234567891011121314151617181920212223
E
B
G
D
A
E
B
0 1 2 3 4 5 6 7 8 9 10 11 12 13 14 15 16 17 18 19 20 21 22 23
(/) Slide Up  (\) Slide Down  (h) Hammer On  (p) Pull Off  (b) Bend (r) Release (v) Vibrato

E|-----------------------------------------------------------------------------------------------
B|-----------1-----------------1-----------------1-----------------1-----------------1-----------
G|--------0-----0-----------0-----0-----------0-----0-----------0-----0-----------1-----1--------
D|-----2-----------2-----2-----------2-----2-----------2-----2-----------2-----0-----------0-----
A|--3-----------------3-----------------0-----------------0--------------------------------------
E|--------------------------------------------------------------------------1--------------------



E|--------------------------------------------------------
B|-----------1-----------------3-----------------3--------
G|--------2-----2-----------4-----4-----------4-----4-----
D|-----0-----------0-----5-----------5-----5-----------5--
A|--------------------------------------------------------
E|--1-----------------3-----------------3-----------------
							http://www.guitartabcreator.com
genre

Member for

8 years 10 months
Submitted by catesrencricca on Sun, 2011-08-07 16:40