1234 Finger Exercise

Chords

01234567891011121314151617181920212223
E
B
G
D
A
E
B
0 1 2 3 4 5 6 7 8 9 10 11 12 13 14 15 16 17 18 19 20 21 22 23
(/) Slide Up  (\) Slide Down  (h) Hammer On  (p) Pull Off  (b) Bend (r) Release (v) Vibrato

Stave 1:

E|--1--2--3--4--
B|--------------
G|--------------
D|--------------
A|--------------
E|--------------

Stave 2:

E|--------------
B|--1--2--3--4--
G|--------------
D|--------------
A|--------------
E|--------------

Stave 3:

E|--------------
B|--------------
G|--1--2--3--4--
D|--------------
A|--------------
E|--------------

Stave 4:

E|--------------
B|--------------
G|--------------
D|--1--2--3--4--
A|--------------
E|--------------

Stave 5:

E|--------------
B|--------------
G|--------------
D|--------------
A|--1--2--3--4--
E|--------------

Stave 6:

E|--------------
B|--------------
G|--------------
D|--------------
A|--------------
E|--1--2--3--4--

							http://www.guitartabcreator.com
Instruments
{"strings":[[[1,2,3,4],[".",".",".","."],[".",".",".","."],[".",".",".","."],[".",".",".","."],[".",".",".","."]],[[".",".",".","."],[1,2,3,4],[".",".",".","."],[".",".",".","."],[".",".",".","."],[".",".",".","."]],[[".",".",".","."],[".",".",".","."],[1,2,3,4],[".",".",".","."],[".",".",".","."],[".",".",".","."]],[[".",".",".","."],[".",".",".","."],[".",".",".","."],[1,2,3,4],[".",".",".","."],[".",".",".","."]],[[".",".",".","."],[".",".",".","."],[".",".",".","."],[".",".",".","."],[1,2,3,4],[".",".",".","."]],[[".",".",".","."],[".",".",".","."],[".",".",".","."],[".",".",".","."],[".",".",".","."],[1,2,3,4]]],"numberofstrings":6,"notes":["E","B","G","D","A","E","B"],"capo":0,"stringnotes":["E4","B3","G3","D3","A2","E2"],"comments":["Stave 1:","Stave 2:","Stave 3:","Stave 4:","Stave 5:","Stave 6:"],"timing":[["W","W","W","W"],["W","W","W","W"],["W","W","W","W"],["W","W","W","W"],["W","W","W","W"],["W","W","W","W"]],"timingvisible":false,"tabcounter":4,"stave":5,"totalstaves":6,"instrument":"6guitar","selectedtuning":"6_standard","version":"13"}

Member for

4 years 8 months
Submitted by castillojovanny on Fri, 2020-11-20 13:30