Sound will begin in 5 seconds

Timber Spider Bass

01234567891011121314151617181920212223
E
B
G
D
A
E
B
0 1 2 3 4 5 6 7 8 9 10 11 12 13 14 15 16 17 18 19 20 21 22 23
Song Science #1: How Pros Use 6 Chords to Write Hit Songs
(/) Slide Up  (\) Slide Down  (h) Hammer On  (p) Pull Off  (b) Bend (r) Release (v) Vibrato

Stave 1:

G|--------------5h7------------------------------------------3h4-------
D|-----------6-------5h7-----------9--9/11--9--8h9--------4-------4h6--
A|---------------------------------------------------------------------
E|--5--5--5---------------7--7--7-------------------2--2---------------

Stave 2:

G|--------------4h6------------------------------------------3h4----------------4v--6--
D|-----------6-------4h6-----------9--9/11--9--8h9--------4-------4h6--------6---------
A|-------------------------------------------------------------------------------------
E|--4--4--4---------------7--7--7-------------------2--2---------------0--0------------

Stave 3:

G|--------4--4h6p4-----------------6h8h6-----------------------4-----4-----4--4-----
D|------------------6-----------9---------9-----6-----6-----6-----6-----6--------6--
A|----------------------------------------------------------------------------------
E|--4--4---------------7--7--7---------------4-----4-----4--------------------------

Stave 4:

G|------------------------------------------------------------------------------------------
D|-----6-----6-----6-----6--------9-----9-----9-----4-----4-----4-----4h4-------------------
A|-------------------------------------------------------------------------4h6--7--6--4-----
E|--4-----4-----4-----4-----7--7-----7-----7-----2-----2-----2-----4---------------------7--

Stave 5:

G|--
D|--
A|--
E|--

http://www.guitartabcreator.com
Guitar Tab Creator is intended to store guitar tab created through the tool. It currently does not support in-line text editing. Any text you place in here will be lost. If you need to comment on your tab, please use the "Tab Notes" section located below.