Honey Pie - Paul McCartney

Chords

01234567891011121314151617181920212223
E
B
G
D
A
E
B
0 1 2 3 4 5 6 7 8 9 10 11 12 13 14 15 16 17 18 19 20 21 22 23
(/) Slide Up  (\) Slide Down  (h) Hammer On  (p) Pull Off  (b) Bend (r) Release (v) Vibrato

Stave 1:

G|--------------|--------------|--------------|--------------|-----------------|--------------|-----------
D|--5-----------|--5-----------|--------------|--------------|--7--------------|--------5-----|-----------
A|--------5-----|--------5-----|--6-----------|--7-----------|--------7--6--5--|--------------|--5--6-----
E|--------------|--------------|--------6-----|--------7-----|-----------------|--5-----------|-----------

Stave 2:

G|-----------|--------|--------|--------|--------2--4--|-----------------|-----------|--
D|-----------|-----2--|-----2--|--5-----|--5--5--------|-----------------|--0--2--4--|--
A|--5--4--3--|--2-----|--4-----|-----5--|--------------|--3--3--2--2-----|-----------|--
E|-----------|--------|--------|--------|--------------|--------------5--|-----------|--

							http://www.guitartabcreator.com
genre
Instruments
{"strings":[[[".","_",".","_","|",".","_",".","_","|",".","_",".","_","|",".","_",".","_","|",".","_",".",".",".","|",".","_",".","_","|",".",".","_"],[5,"_",".","_","|",5,"_",".","_","|",".","_",".","_","|",".","_",".","_","|",7,"_",".",".",".","|",".","_",5,"_","|",".",".","_"],[".","_",5,"_","|",".","_",5,"_","|",6,"_",".","_","|",7,"_",".","_","|",".","_",7,6,5,"|",".","_",".","_","|",5,6,"_"],[".","_",".","_","|",".","_",".","_","|",".","_",6,"_","|",".","_",7,"_","|",".","_",".",".",".","|",5,"_",".","_","|",".",".","_"]],[[".",".",".","|",".",".","|",".",".","|",".",".","|",".",".",2,4,"|",".",".",".",".",".","|",".",".",".","|"],[".",".",".","|",".",2,"|",".",2,"|",5,".","|",5,5,".",".","|",".",".",".",".",".","|",0,2,4,"|"],[5,4,3,"|",2,".","|",4,".","|",".",5,"|",".",".",".",".","|",3,3,2,2,".","|",".",".",".","|"],[".",".",".","|",".",".","|",".",".","|",".",".","|",".",".",".",".","|",".",".",".",".",5,"|",".",".",".","|"]]],"numberofstrings":4,"notes":["G","D","A","E"],"capo":0,"stringnotes":["G2","D2","A1","E1"],"comments":["Stave 1:","Stave 2:"],"timing":[["E",null,"E",null,null,"E",null,"E",null,null,"E",null,"E",null,null,"E",null,"E",null,null,"E",null,"E","E","E",null,"E",null,"E",null,null,"W","W",null,"W"],["W","W","W",null,"W","W",null,"W","W","W","W","W",null,"W","W","W","W",null,"W","W","W","W","W",null,"W","W","W"]],"timingvisible":false,"tabcounter":28,"stave":1,"totalstaves":2,"instrument":"4bass","selectedtuning":"4bass","version":"13"}

Member for

3 months 3 weeks
Submitted by cassius on Mon, 2020-11-16 13:02