Sound will begin in 5 seconds

A Major

01234567891011121314151617181920212223
E
B
G
D
A
E
B
0 1 2 3 4 5 6 7 8 9 10 11 12 13 14 15 16 17 18 19 20 21 22 23
Song Science #1: How Pros Use 6 Chords to Write Hit Songs
(/) Slide Up  (\) Slide Down  (h) Hammer On  (p) Pull Off  (b) Bend (r) Release (v) Vibrato

Stave 1:

E|--------------------------------------------2--4--5--
B|-----------------------------------2--3--5-----------
G|--------------------------1--2--4--------------------
D|--------------------2--4-----------------------------
A|-----------2--4--5-----------------------------------
E|--2--4--5--------------------------------------------

Stave 2:

E|--------------------------------------------4--5--
B|--------------------------------------5--7--------
G|-----------------------------4--6--7--------------
D|--------------------4--6--7-----------------------
A|-----------4--5--7--------------------------------
E|--4--5--7-----------------------------------------

Stave 3:

E|----------------------------------------------7--9--10--
B|------------------------------------7--9--10------------
G|---------------------------6--7--9----------------------
D|------------------6--7--9-------------------------------
A|------------7--9----------------------------------------
E|--7--9--10----------------------------------------------

Stave 4:

E|-----------------------------------------------------9--10--12--
B|------------------------------------------9--10--12-------------
G|-----------------------------------9--11------------------------
D|------------------------9--11--12-------------------------------
A|-------------9--11--12------------------------------------------
E|--9--10--12-----------------------------------------------------

Stave 5:

E|----------------------------------------------------------12--14--
B|----------------------------------------------12--14--15----------
G|----------------------------------11--13--14----------------------
D|----------------------11--12--14----------------------------------
A|----------11--12--14----------------------------------------------
E|--12--14----------------------------------------------------------

http://www.guitartabcreator.com
Guitar Tab Creator is intended to store guitar tab created through the tool. It currently does not support in-line text editing. Any text you place in here will be lost. If you need to comment on your tab, please use the "Tab Notes" section located below.