Sound will begin in 5 seconds

Fire

Chords
01234567891011121314151617181920212223
E
B
G
D
A
E
B
0 1 2 3 4 5 6 7 8 9 10 11 12 13 14 15 16 17 18 19 20 21 22 23
Song Science #1: How Pros Use 6 Chords to Write Hit Songs
(/) Slide Up  (\) Slide Down  (h) Hammer On  (p) Pull Off  (b) Bend (r) Release (v) Vibrato

Stave 1:

Db|--------------------------------|-------------------------------|--------------------------------------|--
Ab|--------------------------------|-------------------------------|--------------------------------------|--
E |-----7-----7-----6-----6-----4--|-----7-----7----------6-----4--|--7-----7-----4-----4-----6-----6-----|--
Bb|--------------------------------|-------------------------------|--------------------------------------|--
Gb|--6-----6-----5-----5-----4-----|--6-----6-----6/6--5-----4-----|-----6-----6-----4-----4-----5-----5--|--
Db|--------------------------------|-------------------------------|--------------------------------------|--

Stave 2:

Db|--------------------------------|--------------------------------------|-------------------------------|--
Ab|--------------------------------|--------------------------------------|-------------------------------|--
E |-----7-----7-----6-----6-----4--|--7-----7-----4-----4-----6-----6-----|-----7-----7----------6-----4--|--
Bb|--------------------------------|--------------------------------------|-------------------------------|--
Gb|--6-----6-----5-----5-----4-----|-----6-----6-----4-----4-----5-----5--|--6-----6-----6/6--5-----4-----|--
Db|--------------------------------|--------------------------------------|-------------------------------|--

Stave 3:

Db|--------------------------------------|--------------------------------------------|--
Ab|--------------------------------------|--------------------3-----------------------|--
E |--------------------------------------|--7--7--7--7--7--7--7--------------6--9--7--|--
Bb|--7-----7-----------7-----7-----------|--5--5--5--5--5--5--5--------5--8--------7--|--
Gb|-----6-----7-----7-----6-----7-----7--|--4--4--4--4--4--4--6--4--7--------------5--|--
Db|--------------6-----------------6-----|--------------------------------------------|--

Stave 4:

Db|--------------------------|----------------------------
Ab|--------------------------|----------------------------
E |-----------------8--------|-------------9--------------
Bb|-----------5--6-----------|----------------------6--6--
Gb|--------6-----------7-----|-----8----------8-----6--6--
Db|--4--7-----------------5--|--9-----9p0--------0--4--4--

Stave 5:

Db|-----------------------
Ab|-----------------------
E |-----------------------
Bb|-----------12p0--11p0--
Gb|-----------------------
Db|--9--9--9--------------

http://www.guitartabcreator.com
Guitar Tab Creator is intended to store guitar tab created through the tool. It currently does not support in-line text editing. Any text you place in here will be lost. If you need to comment on your tab, please use the "Tab Notes" section located below.