Sound will begin in 5 seconds

Prog 2

01234567891011121314151617181920212223
E
B
G
D
A
E
B
0 1 2 3 4 5 6 7 8 9 10 11 12 13 14 15 16 17 18 19 20 21 22 23
Song Science #1: How Pros Use 6 Chords to Write Hit Songs
(/) Slide Up  (\) Slide Down  (h) Hammer On  (p) Pull Off  (b) Bend (r) Release (v) Vibrato

Stave 1:

E|--------------------------------------------------------------------------
B|--------------------------------------------------------------------------
G|--------------------------------------------------------------------------
D|--18--14------------------18--14------------------18--14------------------
A|----------18--14------------------18--14------------------18--14----------
E|------------------18--14------------------18--14------------------18--14--
B|--------------------------------------------------------------------------

Stave 2:

E|--------------------------------------------------------------------------
B|--------------------------------------------------------------------------
G|--------------------------------------------------------------------------
D|--17--13------------------17--13------------------17--13------------------
A|----------17--13------------------17--13------------------17--13----------
E|------------------17--13------------------17--13------------------17--13--
B|--------------------------------------------------------------------------

Stave 3:

E|--------------------------------------------------------------------------
B|--------------------------------------------------------------------------
G|--------------------------------------------------------------------------
D|------------------10--14------------------10--14------------------10--14--
A|----------10--14------------------10--14------------------10--14----------
E|--10--14------------------10--14------------------10--14------------------
B|--------------------------------------------------------------------------

Stave 4:

E|-----------------------------------------------------------------
B|-----------------------------------------------------------------
G|-----------------------------------------------------------------
D|----------------9--13----------------9--13----------------9--13--
A|---------9--13----------------9--13----------------9--13---------
E|--9--13----------------9--13----------------9--13----------------
B|-----------------------------------------------------------------

http://www.guitartabcreator.com
Guitar Tab Creator is intended to store guitar tab created through the tool. It currently does not support in-line text editing. Any text you place in here will be lost. If you need to comment on your tab, please use the "Tab Notes" section located below.